Green Day - Brat Chords & Tabs

 

Brat Chords & Tabs

Green Day Chords & Tabs

Version: 1 Type: Tab 3 ratings
1 star 2 stars 3 stars 4 stars 5 stars
comments

Brat Tab

   
Tabbed by:Sam Champness
Email:
Song:Brat
Tuning:Half Step Down

Intro                 Verse
e|---------------------|--|----------------------------------------------------|
B|---------------------|--|----------------------------------------------------|
G|-5-------7-7-7-7-7-7-|--|-------5-5-----------------5-5---------7-7-7x7-7-7--|
D|-5-x-5---7-7-7-7-7-7-|--|-5-5---5-5-x-5-5-5-5-5-5---5-5-x-5-5---7-7-7x7-7-7--|
A|-3-x-5-x-5-5-5-5-5-5-|--|-5-5-x-3-3-x-5-5-5-5-5-5-x-3-3-x-5-5-x-5-5-5x5-5-5--|
E|-----3-x-------------|--|-3-3-x-------3-3-3-3-3-3-x-------3-3-x--------------|
[ Tab from: http://www.guitartabs.cc/tabs/g/green_day/brat_tab.html ]
Chorus
e|----------------------------------------------------------------------------------||-->
B|----------------------------------------------------------------------------------||-->
G|5-5---------5-5---------5-5---------7-7-7-7-7-7---5-5---------5-5-----------------||-->
D|5-5-x-5-5---5-5-x-5-5---5-5-x-5-5---7-7-7-7-7-7-x-5-5-x-5-5---5-5-x-5-5---3-3-3-3-||-->
A|3-3-x-5-5-x-3-3-x-5-5-x-3-3-x-5-5-x-5-5-5-5-5-5-x-3-3-x-5-5-x-3-3-x-5-5-x-3-3-3-3-||-->
E|------3-3-x-------3-3-x-------3-3-x---------------------3-3-x-------3-3-x-1-1-1-1-||-->

-->|e|-------------------||-----|
-->|B|-------------------||-----|
-->|G|-------------------||-----|
-->|D|-7-7-7-7-7-7-7-7-7-||-7-7-|
-->|A|-7-7-7-7-7-7-7-7-7-||-7-7-|
-->|E|-5-5-5-5-5-5-5-5-5-||-5-5-|
    Pm__________ 
    
Bridge
e|----------------------------------------------------|
B|----------------------------------------------------|
G|------5-5-----------------5-5---------7-7-7x7-7-7---|
D|5-5---5-5-x-5-5-5-5-5-5---5-5-x-5-5---7-7-7x7-7-7---|
A|5-5-x-3-3-x-5-5-5-5-5-5-x-3-3-x-5-5-x-5-5-5x5-5-5---|
E|3-3-x-------3-3-3-3-3-3-x-------3-3-x---------------|


| /  slide up
| \  slide down
| h  hammer-on
| p  pull-off
| ~  vibrato
| +  harmonic
| x  Mute note
=============================================================================			 
Comments