Green Day - Brat Chords & Tabs

 

Brat Chords & Tabs

Green Day Chords & Tabs

Version: 4 Type: Bass Tab 0 ratings
1 star 2 stars 3 stars 4 stars 5 stars
comments

Brat Bass Tab

-------------------------------------------------------------------------------
			     Brat - Green Day
-------------------------------------------------------------------------------

Tabbed By : Richard
e-mail: richie_hizzle@hotmail.com

Tuning:standard

INTRO!
Mom and Dad...

G|----------------|
D|----------------|
A|---3-----5-5-555|
E|------3---------|

VERSE!
Death is closing in...

G|------------------------------------------------|
D|------------------------------------------------|
A|-----3-3----------------3-3------5-5-5-5-5-5-5--|
E|-3-3------3-3-3--3-3-3------3-3-----------------|

Got a plan of action...

G|------------------------------------------------|
D|------------------------------------------------|
A|-----3-3----------------3-3------5-5-5-5-5-5-5--|
E|-3-3------3-3-3--3-3-3------3-3-----------------|

I'll just wait for mom and dad to die...

G|------------------------------------------------|
D|------------------------------------------------|
A|-----3-3----------------3-3------5-5-5-5-5-5-5--|
E|-3-3------3-3-3--3-3-3------3-3-----------------|

CHORUS!

Now I want more...

G|---------------------------------------|
D|---------------------------------------|
A|-3-3-----3-3-----3-3-----5-5-5-5-5-5-5-|
E|-----3-3-----3-3-----3-3---------------|

Once a big doubt...

G|--------------------------------------------|
D|--------------------------------------------|
A|-3-3-----3-3--------------------44-22-11----|
E|-----3-3-----3-3--5555555555555----------4--|

VERSE 2!

Crows feet and rot are settin in...

G|------------------------------------------------|
D|------------------------------------------------|
A|-----3-3----------------3-3------5-5-5-5-5-5-5--|
E|-3-3------3-3-3--3-3-3------3-3-----------------|

My parents income interest rate...

G|------------------------------------------------|
D|------------------------------------------------|
A|-----3-3----------------3-3------5-5-5-5-5-5-5--|
E|-3-3------3-3-3--3-3-3------3-3-----------------|

I'm a snot nosed slob without a job...
[ Tab from: http://www.guitartabs.cc/tabs/g/green_day/brat_btab_ver_4.html ]
G|------------------------------------------------|
D|------------------------------------------------|
A|-----3-3----------------3-3------5-5-5-5-5-5-5--|
E|-3-3------3-3-3--3-3-3------3-3-----------------|

Mom and dad don't look so hot these days...

G|------------------------------------------------|
D|------------------------------------------------|
A|-----3-3----------------3-3------5-5-5-5-5-5-5--|
E|-3-3------3-3-3--3-3-3------3-3-----------------|

CHORUS 2!

Now I want more...

G|---------------------------------------|
D|---------------------------------------|
A|-3-3-----3-3-----3-3-----5-5-5-5-5-5-5-|
E|-----3-3-----3-3-----3-3---------------|

Once a big doubt...

G|--------------------------------------------|
D|--------------------------------------------|
A|-3-3-----3-3--------------------44-22-11----|
E|-----3-3-----3-3--5555555555555----------4--|

BRIDGE!

G|------------------------------------------------|
D|------------------------------------------------|
A|-----3-3----------------3-3------5-5-5-5-5-5-5--|
E|-3-3------3-3-3--3-3-3------3-3-----------------|

G|------------------------------------------------|
D|------------------------------------------------|
A|-----3-3----------------3-3------5-5-5-5-5-5-5--|
E|-3-3------3-3-3--3-3-3------3-3-----------------|

G|------------------------------------------------|
D|------------------------------------------------|
A|-----3-3----------------3-3------5-5-5-5-5-5-5--|
E|-3-3------3-3-3--3-3-3------3-3-----------------|

G|------------------------------------------------|
D|------------------------------------------------|
A|-----3-3----------------3-3------5-5-5-5-5-5-5--|
E|-3-3------3-3-3--3-3-3------3-3-----------------|

CHORUS 3!

Now I want more...

G|---------------------------------------|
D|---------------------------------------|
A|-3-3-----3-3-----3-3-----5-5-5-5-5-5-5-|
E|-----3-3-----3-3-----3-3---------------|

Once a big doubt...

G|--------------------------------------------|
D|--------------------------------------------|
A|-3-3-----3-3--------------------44-22-11----|
E|-----3-3-----3-3--5555555555555----------4--|

The end! easy song and fun to play. anything comes up give me an e-mail and i'll help you out

keep rockin green day!

Comments