Green Day - Brat Chords & Tabs

 

Brat Chords & Tabs

Green Day Chords & Tabs

Version: 1 Type: Bass Tab 0 ratings
1 star 2 stars 3 stars 4 stars 5 stars
comments

Brat Bass Tab

Song: Brat
Artist: Green Day
Album: Insomniac

Intro
G-------------------
D-------------------
A--2-2-----4-2------
E------2-2-----4-2--

Verse/Bridge
G--------------------------------------
D-------------------------------4p2----
A------2-2----------2-2-----4-4-----4--
E--2-2-----2-2-2-2------2-2------------
[ Tab from: http://www.guitartabs.cc/tabs/g/green_day/brat_btab.html ]
Chorus
G----------------------------------------------------------------------------------------------
D----------------------------------4p2---------------------------------------------------------
A--2-2-----2-2-----2-2-----4-4-4-4-----4---2-2-----2-2-----2-2-----4-4-4-4-4-4----2-2-2-1-1-1--
E------2-2-----2-2-----2-2---------------------2-2-----2-2-----2-2-----------------------------

Intro X1
Verse X3
Chorus X1
Verse X3
Chorus X1
Bridge X4
Chorus X1

This tab was created by Christian Mangs. Email me at 
Shadow145@hotmail.com

Comments