Green Day - Brain Stew Chords & Tabs

 

Brain Stew Chords & Tabs

Green Day Chords & Tabs

Version: 2 Type: Tab 2 ratings
1 star 2 stars 3 stars 4 stars 5 stars
comments

Brain Stew Tab




     intro

   E --7--7-----5-5---3--3---2-2--------------------------------------------------
     --9--9-----7-7---5--5---4-4----0-0-------------------------------------------   
     --9--9-----7-7---5--5---4-4----2-2-------------------------------------------
     -------------------------------2-2-------------------------------------------     x2
     -----------------------------------------------------------------------------
    e-----------------------------------------------------------------------------



     verse
    
[ Tab from: http://www.guitartabs.cc/tabs/g/green_day/brain_stew_tab_ver_2.html ]
   ---7-7---5-5-----3--3-----2--2-------------------------------------------------
   ---9-9---7-7-----5--5-----4--4--0--0-------------------------------------------
   ---9-9---7-7-----5--5-----4--4--2--2------------------------------------------- x4
   --------------------------------2--2-------------------------------------------
   -------------------------------------------------------------------------------
   -------------------------------------------------------------------------------

    chorus
   --7-7-x-x-x-x-x-x-5-5-x-x-x-x-x-x3-3-x-x-x-x-x-x-2--2-x-x-----------------------
   --9-9-x-x-x-x-x-x-7-7-x-x-x-x-x-x5-5-x-x-x-x-x-x-4--4-x-x0-0-x-x----------------
   --9-9-x-x-x-x-x-x-7-7-x-x-x-x-x-x5-5-x-x-x-x-x-x-4--4-x-x2-2-x-x----------------
   ------x-x-x-x-x-x-----x-x-x-x-x-x----x-x-x-x-x-x------x-x2-2-x-x---------------- x4
   ------x-x-x-x-x-x-----x-x-x-x-x-x----x-x-x-x-x-x------x-x----x-x----------------
   ------x-x-x-x-x-x-----x-x-x-x-x-x----x-x-x-x-x-x------x-x----x-x----------------



   then repeat the verse and then the chorus two times 


  ANGELS AND AIRWAVES ROX
  
Comments