Green Day - Brain Stew Chords & Tabs

 

Brain Stew Chords & Tabs

Green Day Chords & Tabs

Version: 11 Type: Tab 0 ratings
1 star 2 stars 3 stars 4 stars 5 stars
comments

Brain Stew Tab

   
Date: 12 April 2002
Artist: Green Day
Track: Brain Stew
Album: Insomniac
Tabbed by: the_hombre316
This is the 100% totally correct version.
This song is so easy to play and it sounds just like the one on the album.

Legend:
|-x-x----------|
|-x-x-x-x------|
|-----x-x------|
|--------------|
|--------------|
|--------------|
Muted strings

Tune all guitars down 1/2 step:
6=Eb 3=Gb
5=Ab 2=Bb
4=Db 1=Eb

Intro

|--------------|-------------------|-----------------------|
|--------------|-------------------|-----------------------|
|--------------|-------------------|-----------------------|
|--------------|-------------------|-----------------------|
|-7-7----5-5---|-4-4------3-3---2-2|-----------------------|
|-5-5----3-3---|-2-2------1-1---0-0|-----------------------|

|------------------|----------------------|-----------------------------|
|------------------|----------------------|-----------------------------|
|------------------|----------------------|-----------------------------|
|------------------|-----xxxxxx-----xxxxxx|-----xxxxxx-----xx-----xx----|
|-4-4----3-3----2-2|-7-7-xxxxxx-5-5-xxxxxx|-4-4-xxxxxx-3-3-xx-2-2-xx----|
|-2-2----1-1----0-0|-5-5-xxxxxx-3-3-xxxxxx|-2-2-xxxxxx-1-1-xx-0-0-xx----|

Verse
[ Tab from: http://www.guitartabs.cc/tabs/g/green_day/brain_stew_tab_ver_11.html ]
|-----x-x-x--x-x-----x-x-x--x-x-|-----x-x-x--x-x-----x-x-----x-x---------|
|-----x-x-x--x-x-----x-x-x--x-x-|-----x-x-x--x-x-----x-x-----x-x---------|
|-------------------------------|----------------------------------------|
|-------------------------------|----------------------------------------|
|-7-7------------5-5------------|-4-4------------3-3-----2-2-------------|
|-5-5------------3-3------------|-2-2------------1-1-----0-0-------------|

|--------------|---------------------------|
|--------------|---------------------------|
|--------------|---------------------------|
|--------------|---------------------------|
|-7-7----5-5---|-4-4--------------3-3---2-2|
|-5-5----3-3---|-2-2-(2)/14\2-----1-1---0-0|

Outro (play 6 times)

     ~~~~          ~~~~         ~~~~        ~~~~   ~~~~
|------0-------------0----|-------0-----------------------|-------|
|----0-------------0------|-----0-------------0-----0-----|-------|
|-------------------------|-------------------------------|-------|
|-------------------------|-------------------------------|-------|
|-7-7----7-7---5-5-----5--|-4-4------4----3-3---2-2-------|-7-7---|
|-5-5----5-5-0-3-3-----3-0|-2-2------2-0--1-1---0-0-------|-5-5---|

Lyrics

Verse One

I'm having trouble trying to sleep, I'm counting sheep but running out.
As time ticks by, (and) still I try. No rest for cross tops in my mind.
On my own, here we go.

Verse Two
My eyes feel like they're going to bleed,
Dried up an bulging out my skull.
My mouth is dy,
My face is  numb.
Fucked up and spun out in my room.

Verse Three

My mind is set on overdrive.
The clock is laughing in my face.
A crooked spine,
My sense is dulled.
Passed the point of delirium.

Repeat verse 2 again.

And there you go. Any corrections or shit e-mail me:
the_hombre316@hotmail.com
or
notverygood_uk@hotmail.com
Comments