Green Day - Brain Stew Chords & Tabs

 

Brain Stew Chords & Tabs

Green Day Chords & Tabs

Version: 1 Type: Tab 15 ratings
1 star 2 stars 3 stars 4 stars 5 stars
comments

Brain Stew Tab

Dropped Down Half A Step (Eb,Ab,Db,Gb,Bb,Eb) ok I copied this from someone but heres a tip for all ya guitarists when palmuting dont palm lay your pink finger across the strings that need to be muted.

Intro

Eb |--------------------------------------------------|
Bb |--------------------------------------------------|
Gb |--------------------------------------------------|
Db |-7-7--5-5--4-4--3-3--2-2--7-7--5-5--4-4--3-3--2-2-|
Ab |-7-7--5-5--4-4--3-3--2-2--7-7--5-5--4-4--3-3--2-2-|
Eb |-5-5--3-3--2-2--1-1--0-0--5-5--3-3--2-2--1-1--0-0-|

Verse

Eb |--------------------------------------------------------------------|
Bb |--------------------------------------------------------------------|
Gb |--------------------------------------------------------------------|
Db |-7-7--5-5--4-4--3-3--2-2--7-7--5-5--4-4--3-3--2-2--7-7--5-5--4-4--3-|
Ab |-7-7--5-5--4-4--3-3--2-2--7-7--5-5--4-4--3-3--2-2--7-7--5-5--4-4--3-|
Eb |-5-5--3-3--2-2--1-1--0-0--5-5--3-3--2-2--1-1--0-0--5-5--3-3--2-2--1-|

Eb |--------------------------------------------------------------------|
Bb |--------------------------------------------------------------------|
Gb |--------------------------------------------------------------------|
Db |-3--2-2--7-7--5-5--4-4--3-3--2-2--7-7--5-5--4-4--3-3--2-2--7-7--5-5-|
Ab |-3--2-2--7-7--5-5--4-4--3-3--2-2--7-7--5-5--4-4--3-3--2-2--7-7--5-5-|
Eb |-1--0-0--5-5--3-3--2-2--1-1--0-0--5-5--3-3--2-2--1-1--0-0--5-5--3-3-|

Eb |--------------------------------------------------------------------|
Bb |--------------------------------------------------------------------|
Gb |--------------------------------------------------------------------|
Db |-4-4--3-3--2-2--7-7--5-5--4-4--3-3--2-2--7-7--5-5--4-4--3-3--2-2--7-|
Ab |-4-4--3-3--2-2--7-7--5-5--4-4--3-3--2-2--7-7--5-5--4-4--3-3--2-2--7-|
Eb |-2-2--1-1--0-0--5-5--3-3--2-2--1-1--0-0--5-5--3-3--2-2--1-1--0-0--5-|

Eb |---------------------------------------------------------|
Bb |---------------------------------------------------------|
Gb |---------------------------------------------------------|
Db |-7--5-5--4-4--3-3--2-2--7-7--5-5--4-4--3*-3*--x-x--2*-2*-|
Ab |-7--5-5--4-4--3-3--2-2--7-7--5-5--4-4--3*-3*--x-x--2*-2*-|
Eb |-5--3-3--2-2--1-1--0-0--5-5--3-3--2-2--1*-1*--x-x--0*-0*-|

Chorus

Eb |------x-x-x-x-x-x----------x-x-x-x-x-x----------x-x-x-x-x-x---------|
Bb |------x-x-x-x-x-x----------x-x-x-x-x-x----------x-x-x-x-x-x---------|
Gb |------x-x-x-x-x-x----------x-x-x-x-x-x----------x-x-x-x-x-x---------|
Db |-7-7--x-x-x-x-x-x-----5-5--x-x-x-x-x-x-----4-4--x-x-x-x-x-x-----3-3-|
Ab |-7-7--x-x-x-x-x-x-----5-5--x-x-x-x-x-x-----4-4--x-x-x-x-x-x-----3-3-|
Eb |-5-5--x-x-x-x-x-x--0--3-3--x-x-x-x-x-x--0--2-2--x-x-x-x-x-x--0--1-1-|

Eb |-x-x-------x-x-------x-x-x-x-x-x----------x-x-x-x-x-x----------x-x-|
Bb |-x-x-------x-x-------x-x-x-x-x-x----------x-x-x-x-x-x----------x-x-|
Gb |-x-x-------x-x-------x-x-x-x-x-x----------x-x-x-x-x-x----------x-x-|
Db |-x-x--2-2--x-x--7-7--x-x-x-x-x-x-----5-5--x-x-x-x-x-x-----4-4--x-x-|
Ab |-x-x--2-2--x-x--7-7--x-x-x-x-x-x-----5-5--x-x-x-x-x-x-----4-4--x-x-|
Eb |-x-x--0-0--x-x--5-5--x-x-x-x-x-x--0--3-3--x-x-x-x-x-x--0--2-2--x-x-|

Eb |-x-x-x-x----------x-x-------x-x-|
Bb |-x-x-x-x----------x-x-------x-x-|
Gb |-x-x-x-x----------x-x-------x-x-|
Db |-x-x-x-x-----3-3--x-x--2-2--x-x-|
Ab |-x-x-x-x-----3-3--x-x--2-2--x-x-|
Eb |-x-x-x-x--0--1-1--x-x--0-0--x-x-|

Verse

Eb |--------------------------------------------------------------------|
Bb |--------------------------------------------------------------------|
Gb |--------------------------------------------------------------------|
Db |-7-7--5-5--4-4--3-3--2-2--7-7--5-5--4-4--3-3--2-2--7-7--5-5--4-4--3-|
Ab |-7-7--5-5--4-4--3-3--2-2--7-7--5-5--4-4--3-3--2-2--7-7--5-5--4-4--3-|
Eb |-5-5--3-3--2-2--1-1--0-0--5-5--3-3--2-2--1-1--0-0--5-5--3-3--2-2--1-|

Eb |------------------------------------------|
Bb |------------------------------------------|
Gb |------------------------------------------|
Db |-3--2-2--7-7--5-5--4-4--3*-3*--x-x--2*-2*-|
Ab |-3--2-2--7-7--5-5--4-4--3*-3*--x-x--2*-2*-|
Eb |-1--0-0--5-5--3-3--2-2--1*-1*--x-x--0*-0*-|

Chorus

Eb |------x-x-x-x-x-x----------x-x-x-x-x-x----------x-x-x-x-x-x---------|
Bb |------x-x-x-x-x-x----------x-x-x-x-x-x----------x-x-x-x-x-x---------|
Gb |------x-x-x-x-x-x----------x-x-x-x-x-x----------x-x-x-x-x-x---------|
Db |-7-7--x-x-x-x-x-x-----5-5--x-x-x-x-x-x-----4-4--x-x-x-x-x-x-----3-3-|
Ab |-7-7--x-x-x-x-x-x-----5-5--x-x-x-x-x-x-----4-4--x-x-x-x-x-x-----3-3-|
Eb |-5-5--x-x-x-x-x-x--0--3-3--x-x-x-x-x-x--0--2-2--x-x-x-x-x-x--0--1-1-|
[ Tab from: http://www.guitartabs.cc/tabs/g/green_day/brain_stew_tab.html ]
Eb |-x-x-------x-x-------x-x-x-x-x-x----------x-x-x-x-x-x----------x-x-|
Bb |-x-x-------x-x-------x-x-x-x-x-x----------x-x-x-x-x-x----------x-x-|
Gb |-x-x-------x-x-------x-x-x-x-x-x----------x-x-x-x-x-x----------x-x-|
Db |-x-x--2-2--x-x--7-7--x-x-x-x-x-x-----5-5--x-x-x-x-x-x-----4-4--x-x-|
Ab |-x-x--2-2--x-x--7-7--x-x-x-x-x-x-----5-5--x-x-x-x-x-x-----4-4--x-x-|
Eb |-x-x--0-0--x-x--5-5--x-x-x-x-x-x--0--3-3--x-x-x-x-x-x--0--2-2--x-x-|

Eb |-x-x-x-x----------x-x-------x-x-|
Bb |-x-x-x-x----------x-x-------x-x-|
Gb |-x-x-x-x----------x-x-------x-x-|
Db |-x-x-x-x-----3-3--x-x--2-2--x-x-|
Ab |-x-x-x-x-----3-3--x-x--2-2--x-x-|
Eb |-x-x-x-x--0--1-1--x-x--0-0--x-x-|

Verse

Eb |------x-x-x-x-x-------x-x-x-x-x-------x-x-x-x-x-------x-x-------x-x-|
Bb |------x-x-x-x-x-------x-x-x-x-x-------x-x-x-x-x-------x-x-------x-x-|
Gb |--------------------------------------------------------------------|
Db |-7-7-------------5-5-------------4-4-------------3-3-------2-2------|
Ab |-7-7-------------5-5-------------4-4-------------3-3-------2-2------|
Eb |-5-5-------------3-3-------------2-2-------------1-1-------0-0------|

Eb |------x-x-x-x-x-------x-x-x-x-x-------x-x-x-x-x-------x-x-------x-x-|
Bb |------x-x-x-x-x-------x-x-x-x-x-------x-x-x-x-x-------x-x-------x-x-|
Gb |--------------------------------------------------------------------|
Db |-7-7-------------5-5-------------4-4-------------3-3-------2-2------|
Ab |-7-7-------------5-5-------------4-4-------------3-3-------2-2------|
Eb |-5-5-------------3-3-------------2-2-------------1-1-------0-0------|

Eb |------x-x-x-x-x-------x-x-x-x-x-------x-x-x-x-x-------x-x-------x-x-|
Bb |------x-x-x-x-x-------x-x-x-x-x-------x-x-x-x-x-------x-x-------x-x-|
Gb |--------------------------------------------------------------------|
Db |-7-7-------------5-5-------------4-4-------------3-3-------2-2------|
Ab |-7-7-------------5-5-------------4-4-------------3-3-------2-2------|
Eb |-5-5-------------3-3-------------2-2-------------1-1-------0-0------|

Eb |------x-x-x-x-x-------x-x-x-x-x-------------------------------|
Bb |------x-x-x-x-x-------x-x-x-x-x-------------------------------|
Gb |--------------------------------------------------------------|
Db |-7-7-------------5-5-------------4-4*--------3*--x-x--2*--x-x-|
Ab |-7-7-------------5-5-------------4-4*--------3*--x-x--2*--x-x-|
Eb |-5-5-------------3-3-------------2-2*-/-14-\-1*--x-x--0*--x-x-|

Outro

Eb |---------------------------------------------------------------------|
Bb |---------------------------------------------------------------------|
Gb |---------------------------------------------------------------------|
Db |-7*-7*--x-x--5*-5*--x-x--4*-4*-x-x--3*-3*--x-x--2*-2*--x-x--7*-7*--x-|
Ab |-7*-7*--x-x--5*-5*--x-x--4*-4*-x-x--3*-3*--x-x--2*-2*--x-x--7*-7*--x-|
Eb |-5*-5*--x-x--3*-3*--x-x--2*-2*-x-x--1*-1*--x-x--0*-0*--x-x--5*-5*--x-|

Eb |---------------------------------------------------|
Bb |---------------------------------------------------|
Gb |---------------------------------------------------|
Db |-x--5*-5*--x-x--4*-4*--x-x--3*-3*--x-x--2*-2*--x-x-|
Ab |-x--5*-5*--x-x--4*-4*--x-x--3*-3*--x-x--2*-2*--x-x-|
Eb |-x--3*-3*--x-x--2*-2*--x-x--1*-1*--x-x--0*-0*--x-x-|

Eb |---------------------------------------------------------------------|
Bb |---------------------------------------------------------------------|
Gb |---------------------------------------------------------------------|
Db |-7*-7*--x-x--5*-5*--x-x--4*-4*-x-x--3*-3*--x-x--2*-2*--x-x--7*-7*--x-|
Ab |-7*-7*--x-x--5*-5*--x-x--4*-4*-x-x--3*-3*--x-x--2*-2*--x-x--7*-7*--x-|
Eb |-5*-5*--x-x--3*-3*--x-x--2*-2*-x-x--1*-1*--x-x--0*-0*--x-x--5*-5*--x-|

Eb |---------------------------------------------------|
Bb |---------------------------------------------------|
Gb |---------------------------------------------------|
Db |-x--5*-5*--x-x--4*-4*--x-x--3*-3*--x-x--2*-2*--x-x-|
Ab |-x--5*-5*--x-x--4*-4*--x-x--3*-3*--x-x--2*-2*--x-x-|
Eb |-x--3*-3*--x-x--2*-2*--x-x--1*-1*--x-x--0*-0*--x-x-|

Eb |---------------------------------------------------------------------|
Bb |---------------------------------------------------------------------|
Gb |---------------------------------------------------------------------|
Db |-7*-7*--x-x--5*-5*--x-x--4*-4*-x-x--3*-3*--x-x--2*-2*--x-x--7*-7*--x-|
Ab |-7*-7*--x-x--5*-5*--x-x--4*-4*-x-x--3*-3*--x-x--2*-2*--x-x--7*-7*--x-|
Eb |-5*-5*--x-x--3*-3*--x-x--2*-2*-x-x--1*-1*--x-x--0*-0*--x-x--5*-5*--x-|

Eb |---------------------------------------------------|
Bb |---------------------------------------------------|
Gb |---------------------------------------------------|
Db |-x--5*-5*--x-x--4*-4*--x-x--3*-3*--x-x--2*-2*--x-x-|
Ab |-x--5*-5*--x-x--4*-4*--x-x--3*-3*--x-x--2*-2*--x-x-|
Eb |-x--3*-3*--x-x--2*-2*--x-x--1*-1*--x-x--0*-0*--x-x-|

Eb |------|
Bb |------|
Gb |------|
Db |-7-7*-|
Ab |-7-7*-|
Eb |-5-5*-|
Comments