Green Day - Boulevard Of Broken Dreams Chords & Tabs

 

Boulevard Of Broken Dreams Chords & Tabs

Green Day Chords & Tabs

Version: 9 Type: Tab 0 ratings
1 star 2 stars 3 stars 4 stars 5 stars
comments

Boulevard Of Broken Dreams Tab

   
----------------------------------------------------------------------------
			Boulevard of Broken Dreams - Green Day
----------------------------------------------------------------------------
Tabbed by: Clayton Pennington
Email: offspring_punk08@hotmail.com

Tuning:EADGBe

Intro/Verse (Acoustic With Capo on 1st Fret) x7 
e|-0-0--3-3--2-2--0-0--------------------------------------------|
B|-0-0--0-0--3-3--2-2--------------------------------------------|
G|-0-0--0-0--2-2--2-2--------------------------------------------|
D|-2-2--0-0--0-0--2-2--------------------------------------------|
A|-2-2--2-2-------0-0--------------------------------------------|
E|-0-0--3-3------------------------------------------------------|

Small Riff During Verse
e|--3/4---8\6--3/4-----------------------------------------------|
B|---------------------------------------------------------------|
G|---------------------------------------------------------------|
D|---------------------------------------------------------------|
A|---------------------------------------------------------------|
E|---------------------------------------------------------------|

Pre-Chorus (Electric)
e|---------------------------------------------------------------|
B|---------------------------------------------------------------|
G|-3-3-3-3-3-----------------------------------------------------|
D|-3-3-3-3-3-----------------------------------------------------|
A|-1-1-1-1-1-----------------------------------------------------|
E|---------------------------------------------------------------|

Chorus x 3
e|---------------------------------------------------------------|
B|---------------------------------------------------------------|
G|-6-6-6-6-----------8-8-8-8-------------------------------------|
D|-6-6-6-6--6-6-6-6--8-8-8-8--3-3-3-3----------------------------|
A|-4-4-4-4--6-6-6-6--6-6-6-6--3-3-3-3----------------------------|
E|----------4-4-4-4-----------1-1-1-1----------------------------|

Chorus End
e|---------------------------------------------------------------|
B|---------------------------------------------------------------|
G|-6-6-6-6-----------5-5-5-5-5-----------------------------------|
D|-6-6-6-6--6-6-6-6--5-5-5-5-5-----------------------------------|
A|-4-4-4-4--6-6-6-6--3-3-3-3-3-----------------------------------|
E|----------4-4-4-4----------------------------------------------|

Verse (Acoustic With Capo on 1st Fret) x9
e|-0-0--3-3--2-2--0-0--------------------------------------------|
B|-0-0--0-0--3-3--2-2--------------------------------------------|
G|-0-0--0-0--2-2--2-2--------------------------------------------|
D|-2-2--0-0--0-0--2-2--------------------------------------------|
A|-2-2--2-2-------0-0--------------------------------------------|
E|-0-0--3-3------------------------------------------------------|

Small Riff During Verse
e|--3/4---8\6--3/4-----------------------------------------------|
B|---------------------------------------------------------------|
G|---------------------------------------------------------------|
D|---------------------------------------------------------------|
A|---------------------------------------------------------------|
E|---------------------------------------------------------------|

Pre-Chorus (Electric)
e|---------------------------------------------------------------|
B|---------------------------------------------------------------|
G|-3-3-3-3-3-----------------------------------------------------|
D|-3-3-3-3-3-----------------------------------------------------|
A|-1-1-1-1-1-----------------------------------------------------|
E|---------------------------------------------------------------|

Chorus x 3
e|---------------------------------------------------------------|
B|---------------------------------------------------------------|
G|-6-6-6-6-----------8-8-8-8-------------------------------------|
D|-6-6-6-6--6-6-6-6--8-8-8-8--3-3-3-3----------------------------|
A|-4-4-4-4--6-6-6-6--6-6-6-6--3-3-3-3----------------------------|
E|----------4-4-4-4-----------1-1-1-1----------------------------|

Chorus End
e|---------------------------------------------------------------|
B|---------------------------------------------------------------|
G|-6-6-6-6-----------5-5-5-5-5-----------------------------------|
D|-6-6-6-6--6-6-6-6--5-5-5-5-5-----------------------------------|
A|-4-4-4-4--6-6-6-6--3-3-3-3-3-----------------------------------|
E|----------4-4-4-4----------------------------------------------|

Verse (Acoustic With Capo on 1st Fret) x2
e|-0-0--3-3--2-2--0-0--------------------------------------------|
B|-0-0--0-0--3-3--2-2--------------------------------------------|
G|-0-0--0-0--2-2--2-2--------------------------------------------|
D|-2-2--0-0--0-0--2-2--------------------------------------------|
A|-2-2--2-2-------0-0--------------------------------------------|
E|-0-0--3-3------------------------------------------------------|
[ Tab from: http://www.guitartabs.cc/tabs/g/green_day/boulevard_of_broken_dreams_tab_ver_9.html ]
Pre-Chorus (Electric)
e|---------------------------------------------------------------|
B|---------------------------------------------------------------|
G|-3-3-3-3-3-----------------------------------------------------|
D|-3-3-3-3-3-----------------------------------------------------|
A|-1-1-1-1-1-----------------------------------------------------|
E|---------------------------------------------------------------|

Solo (Hard to tab rhythm use more up and down try listening for rhythm) x3
e|---------------------------------------------------------------|
B|---------------------------------------------------------------|
G|-10-10-12-12-13-13---17-17-15-15--12-12-13-13------------------|
D|-x--x---x--x--x--x----x--x--x--x---x--x--x--x------------------|
A|-8--8--10-10-11-11---15-15-13-13--10-10-11-11------------------|
E|---------------------------------------------------------------|

Solo Ending
e|---------------------------------------------------------------|
B|---------------------------------------------------------------|
G|-10-10-12-12-13-13---17-15-17-17-17-17-17-17-17-17-------------|
D|-x--x---x--x--x--x----x--x--x--x--x--x--x--x--x--x-------------|
A|-8--8--10-10-11-11---15-13-15-15-15-15-15-15-15-15-------------|
E|---------------------------------------------------------------|

Solo Backing x2
e|---------------------------------------------------------------|
B|---------------------------------------------------------------|
G|-6-6-6-6-----------8-8-8-8-------------------------------------|
D|-6-6-6-6--6-6-6-6--8-8-8-8--3-3-3-3----------------------------|
A|-4-4-4-4--6-6-6-6--6-6-6-6--3-3-3-3----------------------------|
E|----------4-4-4-4-----------1-1-1-1----------------------------|

Solo Backing
e|---------------------------------------------------------------|
B|---------------------------------------------------------------|
G|-6-6-------8-8-8-8------------6-6-------5-5-5-5-5-5-5-5-5-5-5-5|
D|-6-6--6-6--8-8-8-8--3-3-3-3---6-6--6-6--5-5-5-5-5-5-5-5-5-5-5-5|
A|-4-4--6-6--6-6-6-6--3-3-3-3---4-4--6-6--3-3-3-3-3-3-3-3-3-3-3-3|
E|------4-4-----------1-1-1-1--------4-4-------------------------|

Verse (Acoustic With Capo on 1st Fret) x2
e|-0-0--3-3--2-2--0-0--------------------------------------------|
B|-0-0--0-0--3-3--2-2--------------------------------------------|
G|-0-0--0-0--2-2--2-2--------------------------------------------|
D|-2-2--0-0--0-0--2-2--------------------------------------------|
A|-2-2--2-2-------0-0--------------------------------------------|
E|-0-0--3-3------------------------------------------------------|

Pre-Chorus (Electric)
e|---------------------------------------------------------------|
B|---------------------------------------------------------------|
G|-3-3-3-3-3-----------------------------------------------------|
D|-3-3-3-3-3-----------------------------------------------------|
A|-1-1-1-1-1-----------------------------------------------------|
E|---------------------------------------------------------------|

Chorus x 3
e|---------------------------------------------------------------|
B|---------------------------------------------------------------|
G|-6-6-6-6-----------8-8-8-8-------------------------------------|
D|-6-6-6-6--6-6-6-6--8-8-8-8--3-3-3-3----------------------------|
A|-4-4-4-4--6-6-6-6--6-6-6-6--3-3-3-3----------------------------|
E|----------4-4-4-4-----------1-1-1-1----------------------------|

Chorus End
e|---------------------------------------------------------------|
B|---------------------------------------------------------------|
G|-6-6-6-6-----------5-5-5-5-5-5-5-5-5-5-5-5-5-------------------|
D|-6-6-6-6--6-6-6-6--5-5-5-5-5-5-5-5-5-5-5-5-5-------------------|
A|-4-4-4-4--6-6-6-6--3-3-3-3-3-3-3-3-3-3-3-3-3-------------------|
E|----------4-4-4-4----------------------------------------------|

Solo Comes In Under Chorus 3rd Time
e|---------------------------------------------------------------|
B|---------------------------------------------------------------|
G|-10-10-12-12-13-13---17-17-15-15--12-12-13-13------------------|
D|-x--x---x--x--x--x----x--x--x--x---x--x--x--x------------------|
A|-8--8--10-10-11-11---15-15-13-13--10-10-11-11------------------|
E|---------------------------------------------------------------|

Solo Ending Under Chorus
e|---------------------------------------------------------------|
B|---------------------------------------------------------------|
G|-10-10-12-12-13-13---17-15-17-17-17-17-17-17-17-17-------------|
D|-x--x---x--x--x--x----x--x--x--x--x--x--x--x--x--x-------------|
A|-8--8--10-10-11-11---15-13-15-15-15-15-15-15-15-15-------------|
E|---------------------------------------------------------------|

Song Ending x3
e|---------------------------------------------------------------|
B|---------------------------------------------------------------|
G|---------------------------------------------------------------|
D|---------------------------------------------------------------|
A|--------4--4-4-6--6-6-5--5-5-----------------------------------|
E|-1--1-1----------------------4--4-4--0--0-0--------------------|

Final
e|----------------------------------------------------------------|
B|----------------------------------------------------------------|
G|----------------------------------------------------------------|
D|------------------------------6-6-2-2---------------------------|
A|--------4--4-4-6--6-6-5--5-5--6-6-2-2---------------------------|
E|-1--1-1-----------------------4-4-0-0---------------------------|


| /  slide up
| \  slide down
| h  hammer-on
| p  pull-off
| ~  vibrato
| +  harmonic
| x  Mute note
============================================================================
Comments