Green Day - Boulevard Of Broken Dreams Chords & Tabs

 

Boulevard Of Broken Dreams Chords & Tabs

Green Day Chords & Tabs

Version: 7 Type: Tab 0 ratings
1 star 2 stars 3 stars 4 stars 5 stars
comments

Boulevard Of Broken Dreams Tab

   
-------------------------------------------------------------------------------
			     Boulevard of Broken Dreams-Green Day
-------------------------------------------------------------------------------
Tabbed by:GuitarGuy04
Email:tkeziah@ctc.com

this is pretty freaking accurate, easy great song by a great band.

Tuning:Standard
[ Tab from: http://www.guitartabs.cc/tabs/g/green_day/boulevard_of_broken_dreams_tab_ver_7.html ]
Intro/Verse
e|---------------------------------------------------------------------------|
B|---------------------------------------------------------------------------|
G|---------------------------------------------------------------------------|
D|-------------------8-8-8--/-3-3-3------------------------------------------|
A|-3-3-3--/-6-6-6--/-6-6-6-/--1-1-1------------------------------------------|
E|-1-1-1-/--4-4-4-/----------------------------------------------------------|
Chorus
e|--------------------------------------/Last chorus part hold the -----------|
B|-------------------------------------/--------------------------------------|
G|------------------------------------/---------------------------------------|
D|-6-6-6-6-----------5-5-5-----------/------------------5-5-5-5---------------|repeat 4x
A|-4-4-4-4--6-6-6---3-3-3--3-3-3---/-------------------3-3-3-3----------------|
E|----------4-4-4----------1-1-1--/-------------------------------------------|

Haven't quite figured out the bridge yet but will post when i figure it out

Lyrics:

i walk this lonely road
the only one that i have ever known
dont know where it goes, but its only me and i walk alone

i walk this empty street on the boulevard of broken dreams
where the city sleeps
and im the only one and i walk alone

Chorus:
My shadows the only one that walks beside me
My shallow hearts the only thing thst beating
Sometimes i wish someone up there will find me
Till then, i walk alone

Im walking down the line 
Something divides me somewhere in my mind
on the borderline of the edge and where i walk alone

Read between the lines
whats fucked up and everythings alright
check my vital signs
to know im still alive and i walk alone
____________________________________________

| /  slide up
| \  slide down
| h  hammer-on
| p  pull-off
| ~  vibrato
| +  harmonic
| x  Mute note
===============================================================================
Comments