Green Day - Boulevard Of Broken Dreams Complete Chords & Tabs

 

Boulevard Of Broken Dreams Complete Chords & Tabs

Green Day Chords & Tabs

Version: 1 Type: Tab 79 ratings
1 star 2 stars 3 stars 4 stars 5 stars
comments

Boulevard Of Broken Dreams Complete Tab

   
GREEN DAY - BOULEVARD OF BROKEN DREAMS

COMPLETE TAB

Main Riff:

   Fm      Ab      Ebsus2  Bbsus2     
e|-1-1-1-1-4-4-4-4-6-6-6-6-1-1-1-1-|
B|-1-1-1-1-4-4-4-4-6-6-6-6-1-1-1-1-|
G|-1-1-1-1-5-5-5-5-8-8-8-8-3-3-3-3-|
D|-3-3-3-3-6-6-6-6-8-8-8-8-3-3-3-3-|
A|-3-3-3-3-6-6-6-6-6-6-6-6-1-1-1-1-|
E|-1-1-1-1-4-4-4-4---------1-1-1-1-|

Intro is main riff x2 played only by electric with distortion and tremolo, that does not play the highest notes of the chords.
Then when vocals begin, enters an acoustic which plays full chords.

Lead between verses (played over Main Riff): electric with a bit of overdrive:
e|---------------------------|
B|-8/9------1311------8/9---|
G|---------------------------|

At the end of verse, right before chorus comes in an electric w/ heavy distortion:
e|---------
B|---------
G|---------
D|-8-8-8-8-
A|-8-8-8-8-
e|-6-6-6-6-

Chorus (electric w/ heavy distortion):
e|---------------------------------|
B|---------------------------------|
G|-6-6-6-6---------8-8-8-8---------|
D|-6-6-6-6-6-6-6-6-8-8-8-8-3-3-3-3-|x 3
A|-4-4-4-4-6-6-6-6-6-6-6-6-3-3-3-3-|
E|---------4-4-4-4---------1-1-1-1-|
[ Tab from: http://www.guitartabs.cc/tabs/g/green_day/boulevard_of_broken_dreams_complete_tab.html ]
e|--------------------------|
B|--------------------------|
G|-6-6-6-6---------10101010-|
D|-6-6-6-6-6-6-6-6-10101010-|x 1
A|-4-4-4-4-6-6-6-6-8-8-8-8--|
E|---------4-4-4-4----------|

Repeat verse & chorus, then verse again

Then the Solo (w/heavy dist.):
e|----------------------------------|
B|-------8-9-9----13-11-11----8-9-9-|
G|-10-10----------------------------|x 4
D|----------------------------------|
A|----------------------------------|
E|----------------------------------|

e|-------------------------|
B|-13-13-13-13-13-13-13-13-|
G|-------------------------|x 2
D|-------------------------| 
A|-------------------------|
E|-------------------------|

4th verse is only with acoustic (except for the heavy distorted Bb powerchord at end)

Then there is the last chorus which has the solo played over it from 2nd repetition;

Then the outro (heavy dist.):			
e|--------------------------------------|
B|--------------------------------------|
G|--------------------------------------|
D|--------------------------------------|x 3
A|-------4-4-4-6-6-6-5-5-5--------------|
E|-1-1-1-------------------4-4-4-0-0-0--|

e|--------------------------------------|
B|--------------------------------------|
G|--------------------------------------|
D|--------------------------6-6-2-2-----|
A|-------4-4-4-6-6-6-5-5-5--6-6-2-2-----|
E|-1-1-1--------------------4-4-0-0-----|



For comments or corrections my mail is fleafly_@libero.it

Comments