Green Day - Boulevard Of Broken Dreams Chords & Tabs

 

Boulevard Of Broken Dreams Chords & Tabs

Green Day Chords & Tabs

Version: 6 Type: Bass Tab 0 ratings
1 star 2 stars 3 stars 4 stars 5 stars
comments

Boulevard Of Broken Dreams Bass Tab

G|-----------------|
D|---------1-1-----|
A|-------------1-1-|  x5
E|-1-1-4-4---------|

Chorus
G|---------------------|
D|-----------1111------|
A|-4444----------------| x2
E|------4444------1111-|

G|-------------------|
D|---------1111------|
A|-44----------------|
E|-----44-------1111-|

G|-----------------|
D|-----------------|
A|-44-----33333333-|
E|-----44----------|

2nd Verse
G|-----------------|
D|---------1-1-----|
A|-------------1-1-|  x6
E|-1-1-4-4---------|

Chorus
G|---------------------|
D|-----------1111------|
A|-4444----------------| x2
E|------4444------1111-|

G|-------------------|
D|---------1111------|
A|-44----------------|
E|-----44-------1111-|

G|-----------------|
D|-----------------|
A|-44-----33333333-|
E|-----44----------|

Guitar solo
G|---------------------|
D|-----------1111------|
A|-4444----------------| x2
E|------4444------1111-|
[ Tab from: http://www.guitartabs.cc/tabs/g/green_day/boulevard_of_broken_dreams_btab_ver_6.html ]
G|-------------------|
D|---------1111------|
A|-44----------------|
E|-----44-------1111-|

G|-----------------|
D|-----------------|
A|-44-----33333333-|
E|-----44----------|

3rd verse 
G|-----------------|
D|---------1-1-----|
A|-------------1-1-|  x2
E|-1-1-4-4---------|

Chorus
G|---------------------|
D|-----------1111------|
A|-4444----------------| x2
E|------4444------1111-|

G|-------------------|
D|---------1111------|
A|-44----------------|
E|-----44-------1111-|

G|-----------------|
D|-----------------|
A|-44-----33333333-|
E|-----44----------|

Outro
G|------------------------------|
D|------11-1111-13-1313-12-1212-|
A|-8-88-------------------------|
E|------------------------------|

G|----------------------------------------|
D|----------------11-1111-13-1313-12-1212-|
A|------7-77-8-88-------------------------|    x3
E|-4-44-----------------------------------|
Comments