Green Day - Boulevard Of Broken Dreams Chords & Tabs

 

Boulevard Of Broken Dreams Chords & Tabs

Green Day Chords & Tabs

Version: 3 Type: Bass Tab 0 ratings
1 star 2 stars 3 stars 4 stars 5 stars
comments

Boulevard Of Broken Dreams Bass Tab

   
------------------------------------------------------------------
GREEN DAY - BOULEVARD OF BROKEN DREAMS (AMERICAN IDIOT) 
------------------------------------------------------------------

[ Tabber: LUIZ MANZANO (BRASIL) ]
[ e-mail: lukdeluca@yahoo.com.br ]

"Don't know where it goes...." (5x)
G|------------------------|
D|------------------------|
A|-----------6-6\1-11-----|
E|1-1/4-44--4-------4\1---|

"I walk...."
(before chorus)
G|----------------------|
D|----------------------|
A|---------66\1-11-13---|
E|11/4-44-4-------------|

Chorus
"My shadows are the only one that walks beside me..."
G|-----------------------------------------------------------------|
D|-----------------------------------------------------------------|
A|4444----6666----4444----6666----4444----6666----4444----333333---|
E|----4444----1111----4444----1111----4444----1111----4444---------|

"Ah ah..., I'm walking down the line..." (9x)
G|------------------------|
D|------------------------|
A|-----------6-6\1-11-----|
E|1-1/4-44--4-------4\1---|

"I walk...."
(before chorus)
G|----------------------|
D|----------------------|
A|---------66\1-11-13---|
E|11/4-44-4-------------|
[ Tab from: http://www.guitartabs.cc/tabs/g/green_day/boulevard_of_broken_dreams_btab_ver_3.html ]
"Ah ah, ah ah..." 
G|--------------------------------------------|
D|--------------------------------------------|
A|-----------6-6\1-11------------66\1-11-13---|
E|1-1/4-44--4-------4\1-11/4-44-4-------------|

Solo
G|----------------------------------------------------------------|
D|----------------------------------------------------------------|
A|4444----6666----4444----6666----44--6666----44--3333333333333---|
E|----4444----1111----4444----1111--44----1111--44----------------|

only guitar and vocal...

"... my shadows are the only one that walks beside me..."
G|-------------------------------------------------------------------------------|
D|-------------------------------------------------------------------------------|
A|11-34444----6666----4444----6666----4444----6666----4444----3333333333333333---|
E|--------4444----1111----4444----1111----4444----1111----4444-------------------|

final riff
G|--------------------------------------------------------------------------------------|
D|--------------------------------------------------------------------------------------|
A|-----4-44-6-66-5-55-------------4-44-6-66-5-55-------------4-44-6-66-5-55-------------|
E|1-11---------------4-44-0-001-11--------------4-44-0-001-11--------------4-44-0-001-11|

G|-------------------|
D|-------------------|
A|4-44-6-66-5-55-----|
E|---------------4400|



| /  slide up
| \  slide down
| h  hammer-on
| p  pull-off
| ~  vibrato
| +  harmonic
| x  Mute note
===============================================================================
Comments