Green Day - Boulevard Of Broken Dreams Chords & Tabs

 

Boulevard Of Broken Dreams Chords & Tabs

Green Day Chords & Tabs

Version: 1 Type: Bass Tab 16 ratings
1 star 2 stars 3 stars 4 stars 5 stars
comments

Boulevard Of Broken Dreams Bass Tab

   
GREEN DAY - BOULEVARD OF BROKEN DREAMS

BASS TAB

Bass enter with drums, with the verse riff:
G|---------------------------------|
D|---------------------------------|
A|-----------------6-6-6-6---------|
E|-1-1-1-1-4-4-4-4---------6-6-6-6-|

Chorus (w/distortion):
G|---------------------------------|
D|---------------------------------|x 3
A|-4-4-4-4---------6-6-6-6---------|
E|---------4-4-4-4---------1-1-1-1-|

G|---------------------------------|
D|---------------------------------|x 1
A|-4-4-4-4---------6-6-6-6-8-8-8-8-|
E|---------4-4-4-4-----------------|

Guitar solo (w/distortion):
G|---------------------------------|
D|---------------------------------|
A|-----------------6-6-6-6---------|x 2
E|-1-1-1-1-4-4-4-4---------6-6-6-6-|
[ Tab from: http://www.guitartabs.cc/tabs/g/green_day/boulevard_of_broken_dreams_btab.html ]
G|------------------------------------|
D|------------------------------------|
A|------------------------------------|
E|-1-1------1-1------/4-4-4-4-4-4-4-4-|

G|--------------------------------------------|
D|--------------------------------------------|
A|--------------------------------------------|
E|-1-1------1-1------/13-13-13-13-13-13-13-13-|

G|-------------------------|
D|-------------------------|
A|-------------------------|
E|-13-13-13-13-13-13-13-13-|


On the 4th verse bass tacet except for this little distorted bit at the end:
G|---------|
D|---------|
A|---------|
E|-6-6-6-6-|

Outro (w/distortion):			
G|--------------------------------------|
D|--------------------------------------|x 3
A|-------4-4-4-6-6-6-5-5-5--------------|
E|-1-1-1-------------------4-4-4-0-0-0--|

G|--------------------------------------|
D|--------------------------------------|
A|-------4-4-4-6-6-6-5-5-5--------------|x 1
E|-1-1-1--------------------4-4-0-0-----|


For comments or corrections my mail is fleafly_@libero.it


Comments