Green Day - Blood Sex And Booze Chords & Tabs

 

Blood Sex And Booze Chords & Tabs

Green Day Chords & Tabs

Version: 5 Type: Tab 0 ratings
1 star 2 stars 3 stars 4 stars 5 stars
comments

Blood Sex And Booze Tab

Tablatura de NICO M. (nicokbbl@hotmail.com)

Artista: Green Day
Cancion: Blood Sex And Booze
Album: Warning (2000) 

                   
1|-------------------------------------------------------------------|
2|-------------------------------------------------------------------|
3|---9-9-9-9-9-9-9-9-9-9-9-9-9------5-5-5-5-5-5-5-5-5-5-5-5----------|x2
4|---9-9-9-9-9-9-9-9-9-9-9-9-9------5-5-5-5-5-5-5-5-5-5-5-5----------|
5|---7-7-7-7-7-7-7-7-7-7-7-7-7------3-3-3-3-3-3-3-3-3-3-3-3----------|
6|-------------------------------------------------------------------|

   Waiting in a room
   All dressed up and bound and gagged
   To a chair
   It's so unfair
   I won't dare move, for the pain
   She puts me through is what I need
   So make it bleed


1|-------------------------------------------------------------------|
2|-------------------------------------------------------------------|
3|----6-6-6-6-6-6-6-6-6-6-6-6--------9-9-9-9-9-9-9-9-9-9-9-9-9-------|
4|----6-6-6-6-6-6-6-6-6-6-6-6--------9-9-9-9-9-9-9-9-9-9-9-9-9-------|
5|----4-4-4-4-4-4-4-4-4-4-4-4--------7-7-7-7-7-7-7-7-7-7-7-7-7-------|
6|-------------------------------------------------------------------|


   I'm in distress, oh mistress
   I confess so do it one more time
   These handcuffs are too tight

1|-------------------------------------------------------------------|
2|-------------------------------------------------------------------|
3|------6-6-6-6-6-6-6-6-6-6-6-6-6----2-2-2-2-2-2-2-2-2-2----4--------|
4|------6-6-6-6-6-6-6-6-6-6-6-6-6----2-2-2-2-2-2-2-2-2-2----4--------|
5|------4-4-4-4-4-4-4-4-4-4-4-4-4----0-0-0-0-0-0-0-0-0-0----2--------|
6|-------------------------------------------------------------------|


   You know I will obey, so please
   Don't make me beg
   For blood, sex and booze you give me


1|-------------------------------------------------------------------|
2|-------------------------------------------------------------------|
3|---9-9-9-9-9-9-9-9-9-9-9-9-9------5-5-5-5-5-5-5-5-5-5-5-5----------|x2
4|---9-9-9-9-9-9-9-9-9-9-9-9-9------5-5-5-5-5-5-5-5-5-5-5-5----------|
5|---7-7-7-7-7-7-7-7-7-7-7-7-7------3-3-3-3-3-3-3-3-3-3-3-3----------|
6|-------------------------------------------------------------------|


  Some say I'm disturbed
  But it's what I deserve, another lesson
  To be learned...from a girl called kill


1|-------------------------------------------------------------------|
2|-------------------------------------------------------------------|
3|---9-9-9-9-9-9-9-9-9-9-9-9-9------5-5-5-5-5-5-5-5-5-5-5-5----------|x3
4|---9-9-9-9-9-9-9-9-9-9-9-9-9------5-5-5-5-5-5-5-5-5-5-5-5----------|
5|---7-7-7-7-7-7-7-7-7-7-7-7-7------3-3-3-3-3-3-3-3-3-3-3-3----------|
6|-------------------------------------------------------------------|

   My head is in the gutter
   Thank you sir, strike up another mandolin
   Of discipline
   Throw me to the dogs
   Let them eat my flesh down
   To the wood
   It feels so good

[ Tab from: http://www.guitartabs.cc/tabs/g/green_day/blood_sex_and_booze_tab_ver_5.html ]
1|-------------------------------------------------------------------|
2|-------------------------------------------------------------------|
3|----6-6-6-6-6-6-6-6-6-6-6-6--------9-9-9-9-9-9-9-9-9-9-9-9-9-------|
4|----6-6-6-6-6-6-6-6-6-6-6-6--------9-9-9-9-9-9-9-9-9-9-9-9-9-------|
5|----4-4-4-4-4-4-4-4-4-4-4-4--------7-7-7-7-7-7-7-7-7-7-7-7-7-------|
6|-------------------------------------------------------------------|


   I'm in distress, oh mistress
   I confess so do it one more time
   These handcuffs are too tight

1|-------------------------------------------------------------------|
2|-------------------------------------------------------------------|
3|------6-6-6-6-6-6-6-6-6-6-6-6-6----2-2-2-2-2-2-2-2-2-2----4--------|
4|------6-6-6-6-6-6-6-6-6-6-6-6-6----2-2-2-2-2-2-2-2-2-2----4--------|
5|------4-4-4-4-4-4-4-4-4-4-4-4-4----0-0-0-0-0-0-0-0-0-0----2--------|
6|-------------------------------------------------------------------|


   You know I will obey, so please
   Don't make me beg
   For blood, sex and booze you give me


1|-------------------------------------------------------------------|
2|-------------------------------------------------------------------|
3|---9-9-9-9-9-9-9-9-9-9-9-9-9------5-5-5-5-5-5-5-5-5-5-5-5----------|x2
4|---9-9-9-9-9-9-9-9-9-9-9-9-9------5-5-5-5-5-5-5-5-5-5-5-5----------|
5|---7-7-7-7-7-7-7-7-7-7-7-7-7------3-3-3-3-3-3-3-3-3-3-3-3----------|
6|-------------------------------------------------------------------|


  Some say I'm disturbed
  But it's what I deserve, another lesson
  To be learned...from a girl called kill


1|-------------------------------------------------------------------|
2|-------------------------------------------------------------------|
3|---9-9-9-9-9-9-9-9-9-9-9-9-9------5-5-5-5-5-5-5-5-5-5-5-5----------|x2
4|---9-9-9-9-9-9-9-9-9-9-9-9-9------5-5-5-5-5-5-5-5-5-5-5-5----------|
5|---7-7-7-7-7-7-7-7-7-7-7-7-7------3-3-3-3-3-3-3-3-3-3-3-3----------|
6|-------------------------------------------------------------------|




1|-------------------------------------------------------------------|
2|-------------------------------------------------------------------|
3|----6-6-6-6-6-6-6-6-6-6-6-6--------9-9-9-9-9-9-9-9-9-9-9-9-9-------|
4|----6-6-6-6-6-6-6-6-6-6-6-6--------9-9-9-9-9-9-9-9-9-9-9-9-9-------|
5|----4-4-4-4-4-4-4-4-4-4-4-4--------7-7-7-7-7-7-7-7-7-7-7-7-7-------|
6|-------------------------------------------------------------------|


   I'm in distress, oh mistress
   I confess so do it one more time
   These handcuffs are too tight

1|-------------------------------------------------------------------|
2|-------------------------------------------------------------------|
3|------6-6-6-6-6-6-6-6-6-6-6-6-6----2-2-2-2-2-2-2-2-2-2----4--------|
4|------6-6-6-6-6-6-6-6-6-6-6-6-6----2-2-2-2-2-2-2-2-2-2----4--------|
5|------4-4-4-4-4-4-4-4-4-4-4-4-4----0-0-0-0-0-0-0-0-0-0----2--------|
6|-------------------------------------------------------------------|


   You know I will obey, so please
   Don't make me beg
   For blood, sex and booze you give meeeee aaaa

   Uoooo
   Ooooo

   Uoooo
   Ooooo



1|-------------------------------------------------------------------|
2|-------------------------------------------------------------------|
3|----6-6-6-6-6-6-6-6-6-6-6-6-7-7-7-7-7-7-7-7-7-7-7-7----9-----------|x3
4|----6-6-6-6-6-6-6-6-6-6-6-6-7-7-7-7-7-7-7-7-7-7-7-7----9-----------|
5|----4-4-4-4-4-4-4-4-4-4-4-4-5-5-5-5-5-5-5-5-5-5-5-5----7-----------|
6|-------------------------------------------------------------------|
Comments