Green Day - Blood Sex And Booze Chords & Tabs

 

Blood Sex And Booze Chords & Tabs

Green Day Chords & Tabs

Version: 2 Type: Bass Tab 0 ratings
1 star 2 stars 3 stars 4 stars 5 stars
comments

Blood Sex And Booze Bass Tab

this is the real bass line to blood sex and booze... I learned it 
from watching a tape of Greenday live. notice that the strings are 
Backwards....... my bad ............. but it's still readable, 
just flip it around.

Intro
G------------------------------------------------------------
D-----2-----2-----2-----2-----2----2----2---2----------------
A------------------------------------------------------------
E--0-----0-----0-----0-----0----0----0----0------------------

Verses
G---------------------------------------------------5---5---5---5
D-----2-----2-----2-----2-----2----2----2---2--------------------
A------------------------------------------------3----3---3---3--
E--0-----0-----0-----0-----0----0----0----0----------------------
[ Tab from: http://www.guitartabs.cc/tabs/g/green_day/blood_sex_and_booze_btab_ver_2.html ]
G-----5----5----5----5--------------------------------------- 
D------------------------------------------------------------
A--3----3----3----3------------------------------------------
E------------------------------------------------------------

Chorus
G------------------------------------------------------------
D----------------------------------2-2-2-2-2-2-2-2-2-2-2-2-2-
A--4-4-4-4-4-4-4-4-4-4-4-4-4-4-4-4---------------------------
E------------------------------------------------------------

G------------------------------------------------------------
D--2-2-2-----------------------------------------------------
A---------4-4-4-4-4-4-4-4-4-4-4-4-4-4-4-4-0-0-0-0-0-0-0-0-2--
E------------------------------------------------------------

Post chorus 
G--------------------7---7---7---7---6---6---6---6---2---2-------
D----2---2---2---2-----------------------------------------------
A------------------5---5---5---5---4---4---4---4---0---0---2-----
E--0---0---0---0-------------------------------------------------

repeat Verses for instrmental break

this is the correct tab, i am positive just turn it on and go with 
the flow.... if there are any Q's E-mail me at 
guitarmatt2008@yahoo.com
Comments