Green Day - Before The Lobotomy Chords & Tabs

 

Before The Lobotomy Chords & Tabs

Green Day Chords & Tabs

Version: 7 Type: Bass Tab 0 ratings
1 star 2 stars 3 stars 4 stars 5 stars
comments

Before The Lobotomy Bass Tab

I'm not shure that this tab is 100% correct. This song is easy to play. Have Fun!

Tune: Standard
(I like to use a pick to play this song)

Intro

G|---------------------------|
D|----(guitar only)----------|
A|---------------------------|
E|---------------------------|

1:20

G|---------------------------|
D|---------------------------|
A|4-------4--------4---------| (repeat)
E|----------2-4-0------------|

Verse

G|---------------------------|
D|---------------------------|
A|4---------4----------------|
E|-2-4---2-4-2---------------|

Bridge
[ Tab from: http://www.guitartabs.cc/tabs/g/green_day/before_the_lobotomy_btab_ver_7.html ]
G|---------------------------|
D|---------------------------|
A|-----4------4--------------|
E|--22--44-22--44------------|

Verse 
Bridge


Verse 2

G|-------------------------------|
D|-------------------------------|
A|-444------444------222---------|
E|------444-----444------222-----|

Pre-Chorus
G|---------------------------|
D|---------------------------|
A|4444444--------------------|
E|--------------0000---------|

Chorus

G|------------------------------------------|
D|----------------------------------00000000|
A|---------------------------2222222--------|
E|--2222222--1111111--000000----------------|

Comments