Green Day - Before The Lobotomy Chords & Tabs

 

Before The Lobotomy Chords & Tabs

Green Day Chords & Tabs

Version: 5 Type: Bass Tab 0 ratings
1 star 2 stars 3 stars 4 stars 5 stars
comments

Before The Lobotomy Bass Tab

   
-------------------------------------------------------------------------------
		      Before The Lobotomy-Green Day
-------------------------------------------------------------------------------

Tabbed By :Stjimmy34
Tuning:Half-step Down

Pre-verse
Gb|---|-----------------------------------------------------------------------|
Db|---|-----------------------------------------------------------------------|
Ab|-5-|-5-----------------(x8)------------------------------------------------|
Eb|---|---3-5-----------------------------------------------------------------|

Verse "Life before the lobotomy"              
Gb|---------------------------------------------------------------------------|
Db|---------------------------------------------------------------------------|
Ab|-----------------------------5----------5----(x4)--------------------------|
Eb|-------------------------------3-5--5-3------------------------------------|

Chorus x8
Gb|---------------------------------------------------------------------------|
Db|---------------------------------------------------------------------------|
Ab|---5-----------------------------------------------------------------------|
Eb|-3---5---------------------------------------------------------------------|

Verse "Christian's lesson's...."
Gb|------------------------------------------------|--------------------------|
Db|------------------------------------------------|--------------------------|
Ab|-----------------------------5----------5--(x3)-|-5-----5----------5-------|
Eb|-------------------------------3-5--5-3---------|---------3-5--5-3---------|
[ Tab from: http://www.guitartabs.cc/tabs/g/green_day/before_the_lobotomy_btab_ver_5.html ]
Chorus x8
   End with this for the 8th time
Gb|---------------------------------------------------------------------------|
Db|------7777777777777777-----------------------------------------------------|
Ab|---5-----------------------------------------------------------------------|
Eb|-3-------------------------------------------------------------------------|

Bridge
Gb|-------------------------|-------------------------------------------------|
Db|-------------------------|-------------------------------------------------|
Ab|-5-5-555------------(x4)-|-3-3-333------------6-6-666----------------------|
Eb|---------5-55-5555-------|---------3-33-3333----------6-66-6666------------|

                   slowly release palm mute
Gb|---------------------------------------------------------------------------|
Db|---------------------------------------------------------------------------|
Ab|-5-555-555-555-5-5555555555555555------------------------------------------|
Eb|---------------------------------------------------------------------------|
                    ........

Outro x3
GB|------------------------------------------------------------------------------|
Db|------5555------5555------4444------4444------3333------3333------------------|
Ab|-------------------------------------------------------------3333333-66666666-|
Eb|-3333------3333------2222------2222------1111------1111-----------------------|

GB|---------------------------------------------------------------------------|
Db|------5555------5555------4444------4444------3333------3333---------------|
Ab|---------------------------------------------------------------------------|
Eb|-3333------3333------2222------2222------1111------1111--------------------|



| . palm mute
| /  slide up
| \  slide down
| h  hammer-on
| p  pull-off
| ~  vibrato
| +  harmonic
| x  Mute note
===============================================================================
Comments