Green Day - Basket Case Chords & Tabs

 

Basket Case Chords & Tabs

Green Day Chords & Tabs

Version: 7 Type: Tab 0 ratings
1 star 2 stars 3 stars 4 stars 5 stars
comments

Basket Case Tab

 vers 1
 |-------------------|
 |-------------------|
 |-9---6-----9-------|
 |-9-9-6-6-7-9-9-2x--|
 |-7-9-4-6-7-7-9-----|
 |---7---4-5---7-----|
               x

chorus
|--------------------|
|--------------------|
|-----9-2x-6-5-7-9---|
|-7-9-9----6-5-7-9---|
|-7-9-7----4-3-5-7---|
|-5-7----------------|
      x

i'm just stone
[ Tab from: http://www.guitartabs.cc/tabs/g/green_day/basket_case_tab_ver_7.html ]
|--------------------|
|--------------------|
|-9------------------|
|-9-9-11-9-----------|
|-7-9-11-9-----------|
|---7-9--7-----------|


vers 2
 |-------------------|
 |-------------------|
 |-9---6-----9-------|
 |-9-9-6-6-7-9-9-2x--|
 |-7-9-4-6-7-7-9-----|
 |---7---4-5---7-----|
               x
outro
 |--------------------|
 |--------------------|
 |-9-6---9------------|
 |-9-6-7-9-9----------|
 |-7-4-7-7-9----------|
 |-----5---7----------|


Comments