Green Day - Basket Case Chords & Tabs

 

Green Day Chords & Tabs

Version: 1 Type: Tab 0 ratings
1 star 2 stars 3 stars 4 stars 5 stars
comments

Basket Case Tab

Artist: Green Day
Song: Basket Case
Album: Dookie

Green Day tunes Half a Step down.
Please listen to song for strumming.

Verse:

E-----------------------------
B-----------------------------
G---9-------6-----------9-----
D---9---9---6---6---7---9---9-
A---7---9---4---6---7---7---9-
E-------7-------4---5-------7-

Chorus:
    
E----------------
B----------------
G-----------9----
D---7---9---9----
A---7---9---7----
E---5---7--------
                       
Bridge 1:

E-----------------------
B-----------------------
G---9---7---6-----------
D---9---7---6---7---9---
A---7---5---4---7---9---
E---------------5---7---

Bridge 2:

E--------------------
B--------------------
G---9-------6--------  
D---9---9---6---9----
A---7---9---4---9----  
E-------7-------7---- 

Bridge 3:
[ Tab from: http://www.guitartabs.cc/tabs/g/green_day/basket_case_tab.html ]
E----------
B----------
G----------
D---7---9--
A---7---9--
E---5---7--

Outro:

E-----------------------
B-----------------------
G---7-----------5-------
D---7---9---5---5---5---
A---5---9---5---7---5---
E-------7---3-------7---

End:

E------------------------------------
B------------------------------------
G-------5------------------------7---
D---5---5---5------------7---5---7--- Let the last note ring
A---5---7---5------------7---5---5---
E---3-------7---3/11\3---5---3------- (Dont need to pluck 3/11\3, just slide fret hand)

Order:

   Verse x2 (Palm Muted)
  Chorus x3 (Palm Muted)
Bridge 1 x1
Bridge 2 x1
   Verse x2
  Chorus x3
Bridge 1 x1
Bridge 2 x4
Bridge 3 x1
   Verse x2
  Chorus x3 (Palm Muted)
Bridge 1 x1
   Outro x3
     End x1 (technically part of the outro is the end, but it reads better this way
              you can actually see the last 6 Chords with the fret hand slide in there)
Comments