Green Day - Basket Case (live) Chords & Tabs

 

Basket Case (live) Chords & Tabs

Green Day Chords & Tabs

Version: 1 Type: Tab 0 ratings
1 star 2 stars 3 stars 4 stars 5 stars
comments

Basket Case (live) Tab

This tab is based on Green Days live Bullet In A Bible concert. 

note+ X = palm mute e.g
D|-5x--
A|-5x--
E|-3x--

intro/verse
E|--------------------------------------------------------------------------------------------
B|--------------------------------------------------------------------------------------------
G|------8--------8-------------------5-------5--------------------------------------8-------8- -
D|------8--------8-----8-------8-----5-------5-------5-------5-----6--------6-------8-------8-
A|--6x6x6--6x6x6x6-----8-------8-3x3x3-3x3x3x3-------5-------5-----6--------6---6x6x6-6x6x6x6-
E|-----------------6x6x6-6x6x6x6-----------------3x3x3-3x3x3x3-4x4x4--4x4x4x4-----------------

E|-------------------------------------
B|-------------------------------------
G|-------------------------------------
D|-----8---------8---8-----8----------- x2
A|-----8---------8---8-----8-----------
E|-6x6x6-6x6x6x6x6-6x6-6x6x6-----------

E|----------------------------------------
B|----------------------------------------
G|----------------------8888888888888----- palm mute all of this !
D|-66666666---888--888--8888888888888----- x2
A|-66666666---8888-888--6666666666666-----
E|-44444444---6666-666--------------------

then do this 
E|-------------------------------------
B|-------------------------------------
G|--888--------------------------------
D|--888-666-8888888-66666-888888-------
A|--666-666-8888888-66666-888888-------
E|------444-6666666-44444-666666-------


then
E|-------------------------------------
B|-------------------------------------
G|--888--------------------------------
D|--888--888-101010-888---------------- x2
A|--666--888-101010-888----------------
E|-------666-8-8-8--666----------------
 
Chorus
E|-----------------------------------------------------------
B|-----------------------------------------------------------
G|--88888---------55555---------------8888888----------------
D|--88888-8888888-55555-5555555-66666-8888888-8888888888----- x2
A|--66666-8888888-33333-5555555-66666-6666666-8888888888-----
E|--------6666666-------3333333-44444---------6666666666-----

E|----------------------------------------
B|----------------------------------------
G|----------------------8888888888888----- 
D|-66666666---888--888--8888888888888----- x3
A|-66666666---8888-888--6666666666666-----
E|-44444444---6666-666--------------------
[ Tab from: http://www.guitartabs.cc/tabs/g/green_day/basket_case_live_tab.html ]
E|----------------------------------------
B|----------------------------------------
G|---------------------------------------- 
D|-66666666---888--888-------------------- 
A|-66666666---8888-888--------------------
E|-44444444---6666-666--------------------
then do this 
E|-------------------------------------
B|-------------------------------------
G|--888--------------------------------
D|--888-666-8888888-66666-888888-------
A|--666-666-8888888-66666-888888-------
E|------444-6666666-44444-666666-------


then
E|-------------------------------------
B|-------------------------------------
G|--888--------------------------------
D|--888--888-101010-888---------------- x4
A|--666--888-101010-888----------------
E|-------666-8-8-8--666----------------


E|-------------------------------------
B|-------------------------------------
G|-------------------------------------
D|--666666666666666-8888888888888888---
A|--666666666666666-8888888888888888---
E|--444444444444444-6666666666666666---

E|-----------------------------------------------------------
B|-----------------------------------------------------------
G|--88888---------55555---------------8888888----------------
D|--88888-8888888-55555-5555555-66666-8888888-8888888888----- x2
A|--66666-8888888-33333-5555555-66666-6666666-8888888888-----
E|--------6666666-------3333333-44444---------6666666666-----

E|----------------------------------------
B|----------------------------------------
G|----------------------8888888888888----- 
D|-66666666---888--888--8888888888888----- x3
A|-66666666---8888-888--6666666666666-----
E|-44444444---6666-666--------------------

E|----------------------------------------
B|----------------------------------------
G|---------------------------------------- 
D|-66666666---888--888-------------------- 
A|-66666666---8888-888--------------------
E|-44444444---6666-666--------------------

E|-------------------------------------
B|-------------------------------------
G|--888--------------------------------
D|--888-666-8888888-66666-888888-------
A|--666-666-8888888-66666-888888-------
E|------444-6666666-44444-666666-------

end 

E|-------------------------------------
B|-------------------------------------
G|--888888--------------------888-------
D|--888888--101010101010--666-888-888888 x4
A|--666666--101010101010--666-666-888888
E|----------8-8-8-8-8-8---444-----666666


Comments