Green Day - Basket Case Chords & Tabs

 

Basket Case Chords & Tabs

Green Day Chords & Tabs

Version: 6 Type: Bass Tab 0 ratings
1 star 2 stars 3 stars 4 stars 5 stars
comments

Basket Case Bass Tab

   
+-------------------------------------------------------------------|
| Song: Basket Case                                                 |
| Album: Dookie (1994)                                              |
| Tuning: Eb Ab Db Gb                                               |
| Tabbed by: vi3x [vi3x@libero.it]                                  |
| Notes: in this version you play the song mostly on D and A string |
|        (like Mike does, see the video). The fill in's are easier. |
+-------------------------------------------------------------------+

Bass enters ["...i think i'm cracking up]
Gb|-------------------------------------|--------|
Db|-------------------------------------|--------|
Eb|-7-7-55-4-444-44------------------7#-|-8h9-7~-|
Ab|-----------------5-5-55--7-777-77----|--------|

Verse
Gb|------------------------------------------------------------------------|
Db|------------------------4h6---------------------------------------------| x2
Eb|------------------4-4-4---------------------7-7-7-77h9------------------|
Ab|-0-0-000-7-777-77----------4-444-44-5-5-555------------7-7-777-7-777-77-|
[ Tab from: http://www.guitartabs.cc/tabs/g/green_day/basket_case_btab_ver_6.html ]
Prechorus
Gb|-------------------------------------------|
Db|---------------------------------9p7-6-9p7-|
Eb|------------------7-7-777-7-777------------|
Ab|-5-5-55-7-777-77p5-------------------------|

Gb|-------------------------------------------|
Db|---------------------------------6h7-9-7p6-|
Eb|------------------7-7-777-7-777------------|
Ab|-5-5-55-7-777-77p5-------------------------|

Gb|-----------------------------------------------------|
Db|-----------------------------------------------------|
Eb|------------------7-7-5-5-4-444-4-4------------------|
Ab|-5-5-55-7-777-77p5-----------------5-5-55-7-777-77p5-|

Chorus
Gb|--------------------------|
Db|--------------------------| x4
Eb|-7------------------------|
Ab|---7-7--9-9--7-7-(0-5h7)--|

Gb|------------------------------|------|
Db|------------------------------|------|
Eb|------------------------------|--7h8-|
Ab|-5555555555555555-7-7-7777-7~-|-7----|

Verse
Prechorus

Coda
Gb|------------------------------------|
Db|------------------------------------| x3
Eb|-7-77-77-------------7-7------------|
Ab|--------9-99-99--5-5-----7-777-77p5-|

Gb|-----------------------------------------|
Db|-----------------------------------------|
Eb|-7-77-77------------7--------------------|
Ab|--------9-99-99--5-----7~--/17--5--0--7~-|

h: hammer on
p: pull off
#: block string
~: let ring
Comments