Green Day - Basket Case Chords & Tabs

 

Basket Case Chords & Tabs

Green Day Chords & Tabs

Version: 1 Type: Bass Tab 3 ratings
1 star 2 stars 3 stars 4 stars 5 stars
comments

Basket Case Bass Tab

ARTIST : Green Day
 TRACK : Basket Case
TAB BY : marc.shuttle@btinternet.com

Intro bit
G|---------------------------|
D|---------------------------|
A|-------------------------7-|
E|-5-5-5-5-5-5-7-7-7-7-7-7---|

Bass fill
G|-1h2p1~~~-|
D|----------|
A|----------|
E|----------|

Verse
G|-------------------------------------------------|
D|-------------------------------------------------|
A|-7-7-7-7-7-7-------------4-4-4-4-4-4-------------|
E|-------------7-7-7-7-7-7-------------4-4-4-4-4-4-|

G|-------------------------------------------------|
D|-------------------------------------------------|
A|-------------7-7-7-7-7-7-------------------------|
E|-5-5-5-5-5-5-------------7-7-7-7-7-7-7-7-7-7-7-7-|

Chorus
G|-------------------------------------------------|
D|-----------------------------------7-5-----------|
A|-------------------------7-7-7-7-7-----6-5-------|
E|-5-5-5-5-5-5-7-7-7-7-7-7-------------------5-----|
 First time only. Repeat with the bit below
[ Tab from: http://www.guitartabs.cc/tabs/g/green_day/basket_case_btab.html ]
G|-------------------------------------------------|
D|-------------------------------------------------|
A|-------------------------7-7-7-7-7-7-7-7-7-7-7-7-|
E|-5-5-5-5-5-5-7-7-7-7-7-7-------------------------|

	then
	G|-------------------------------------|
	D|-------------------------------------|
	A|-------------------------7-7-5-5-4---|
	E|-5-5-5-5-5-5-7-7-7-7-7-7-------------|

	finally
	G|-------------------------|----------------------|
	D|-------------------------|----------------------|
	A|-------------------------|-7-7------------------|
	E|-5-5-5-5-5-5-7-7-7-7-7-7-|------7-7--9-9--7-7---|
                                    Repeat this part

Bridge
G|------------------------------------|
D|------------------------------------|
A|------------------------------------|
E|-5-5-5-5-5-5-5-5-7-7-7-7-7-7-7-7-7--|
"Grasping to control..."

For the musical interlude bit just play the verse.

Ending
G|-------------------------|-------|
D|-------------------------|-------|
A|-------------------------|---7---|
E|-5-5-5-5-5-5-7-7-7-7-7-7-|-5---7-|
Comments