Green Day - Babs Uvula Who Chords & Tabs

 

Babs Uvula Who Chords & Tabs

Green Day Chords & Tabs

Version: 2 Type: Tab 0 ratings
1 star 2 stars 3 stars 4 stars 5 stars
comments

Babs Uvula Who Tab

Green Day - Bab's Uvula Who?.
Tabbed by Nathan Sessions - rubberdude69@hotmail.com.
  
e|-------------------------------------------------|
B|-------------------------------------------------|
G|-------------------------------------------------|
D|-8--------6----------3---------------------------|
A|-8--------6----------3---------------------------|
E|-6--------4----------1---------------------------|

e|------------------------------------------|
B|------------------------------------------|
G|-------------------------------------888--|repeat 6x
D|x8-8x------x8-8x------x8-8x------6-6-888--|
A|x8-8x------x8-8x------x8-8x------6-6-666--|
E|x6-6x------x6-6x------x6-6x------4-4------|
[ Tab from: http://www.guitartabs.cc/tabs/g/green_day/babs_uvula_who_tab_ver_2.html ]
e|-------------------------------------------------|
B|-------------------------------------------------|
G|----------------888------------------------------|
D|-8-8--8-8---6-6-888------------------------------|
A|-8-8--8-8---6-6-666------------------------------|
E|-6-6--6-6---4-4----------------------------------|


e|------------------------------------------|
B|------------------------------------------|
G|-------------------------------------888--|
D|-8-8--------8-8--------8-8-------6-6-888--|
A|-8-8--------8-8--------8-8-------6-6-666--|
E|-6-6--------6-6--------6-6-------4-4------|

Thats about it. any questions/comments/suggestions email me - rubberdude69@hotmail.com  Enjoy 
:: Ultimate Guitar Archive :: 
http://www.ultimate-guitar.com 

Comments