Green Day - Babs Uvala Who Chords & Tabs

 

Babs Uvala Who Chords & Tabs

Green Day Chords & Tabs

Version: 1 Type: Tab 4 ratings
1 star 2 stars 3 stars 4 stars 5 stars
comments

Babs Uvala Who Tab

   
Tabbed by: Sam Champness
Email:
Song: Babs uvula who
Tuning: Half step down

Intro
e|-------------||--------------------||
B|-------------||--------------------||
G|-------11----||--------------------||
D|-9--7--11----||--------------------||
A|-9--7--9-----||--------------------||
E|-7--5--------||LET LAST NOTE RING--||

Verse
e|------------------------------|
B|------------------------------|
G|------------------------9-9---|
D|-9-9-x-9-9-x-9-9-x-7-7--9-9---|
A|-9-9-x-9-9-x-9-9-x-7-7--7-7---|
E|-7-7-x-7-7-x-7-7-x-5-5--------|
[ Tab from: http://www.guitartabs.cc/tabs/g/green_day/babs_uvala_who_tab.html ]
Chorus
e|-----------------------------------||-----------|
B|-----------------------------------||-----------|
G|---------------------------9-9-9-9-||-------11--|
D|-9-9-9-9-9-9-9-9--7-7-7-7--9-9-9-9-||-9--7--11--|
A|-9-9-9-9-9-9-9-9--7-7-7-7--7-7-7-7-||-9--7--9---|
E|-7-7-7-7-7-7-7-7--5-5-5-5----------||-7--5------|

Bridge (play faster strumming)
e|--------------------------------------------|
B|--------------------------------------------|
G|--------------------------------9-9-9-9-----|
D|7-77-x-9-99-x-9-99-x--7-7-7-7-x-9-9-9-9-----|
A|7-77-x-9-99-x-9-99-x--7-7-7-7-x-7-7-7-7-----|
E|9-99-x-7-77-x-7-77-x--5-5-5-5-x-------------| ENJOY!!!! PLEASE RATE!!!!


| /  slide up
| \  slide down
| h  hammer-on
| p  pull-off
| ~  vibrato
| +  harmonic
| x  Mute note
=============================================================================
Comments