Green Day - Armatage Shanks Chords & Tabs

 

Armatage Shanks Chords & Tabs

Green Day Chords & Tabs

Version: 2 Type: Tab 0 ratings
1 star 2 stars 3 stars 4 stars 5 stars
comments

Armatage Shanks Tab

   
  This is Armatage Shanks off of the Insomniac cd, its one
of my favorites 



(Drop D tuning)                      

*Intro
E ----------
B ----------
G -8--------
D -8--------
A -6 (32x)--
D ----------

*Verse
E --------------------------------------------------------------------------------------
B --------------------------------------------------------------------------------------
G ---------------6--6-6-6-6-6----------------6--6-6-6-6-6-------------------------------
D -6--6-6-6-6-6--6--6-6-6-6-6--3--3-3-3-3-3--6--6-6-6-6-6---1--1-1-1-1-1-1-1-1-1-1-1-1--
A -6--6-6-6-6-6--4--4-4-4-4-4--3--3-3-3-3-3--4--4-4-4-4-4---1--1-1-1-1-1-1-1-1-1-1-1-1--
D -6--6-6-6-6-6----------------3--3-3-3-3-3-----------------1--1-1-1-1-1-1-1-1-1-1-1-1--
   ___________2x_____________

*Chorus
E ----------------------------------------------------------------------
B ----------------------------------------------------------------------
G -6--6-6-6-6-6--------------------------------------------6--6-6-6-6-6-
D -6--6-6-6-6-6--6--6-6-6-6-6--1--1-1-1-1-1--6--6-6-6-6-6--6--6-6-6-6-6-
A -4--4-4-4-4-4--6--6-6-6-6-6--1--1-1-1-1-1--6--6-6-6-6-6--4--4-4-4-4-4-
D ---------------6--6-6-6-6-6--1--1-1-1-1-1--6--6-6-6-6-6---------------
[ Tab from: http://www.guitartabs.cc/tabs/g/green_day/armatage_shanks_tab_ver_2.html ]
E ---------------------------------------------------------------------------------
B ---------------------------------------------------------------------------------
G ---------------8--8-8-8-8-8-8-8-8-8-8--------------------------------------------
D -6--6-6-6-6-6--8--8-8-8-8-8-8-8-8-8-8--------------------------------------------
A -6--6-6-6-6-6--6--6-6-6-6-6-6-6-6-6-6--------------------------------------------
D -6--6-6-6-6-6--------------------------------------------------------------------

*Break 
E -----------------------------------------------------------------------------
B -----------------------------------------------------------------------------
G -----------------------------6-------8---------------------------------------
D -6--6-6-6-6-6--3--3-3-3-3-3--6-------8---------------------------------------
A -6--6-6-6-6-6--3--3-3-3-3-3--4(16x)--6(16x 1st time, 1x 2nd time)------------
D -6--6-6-6-6-6--3--3-3-3-3-3--------------------------------------------------
   ____________2x____________


*Outro
E ---------
B ---------
G -8-------
D -8-------
A -6 (32x)-
D ---------                 
                This is the song order...
                   Intro
                   Verse
                   Chorus
                   Verse
                   Chorus
                   Break 
                   Verse
                   Chorus
                   Outro                 
                                                   
 
For any questions, comments, corrections, or a tab request, 
Email me at RoCkY10078@netscape.net
				
Comments