Green Day - Armatage Shanks Chords & Tabs

 

Armatage Shanks Chords & Tabs

Green Day Chords & Tabs

Version: 6 Type: Bass Tab 0 ratings
1 star 2 stars 3 stars 4 stars 5 stars
comments

Armatage Shanks Bass Tab

   
Song: Armatage Shanks
      By Green Day

Tuning: half step down

Intro
Gb|----------------------------|
Db|-2222222222222222222200-----|
Ab|-----------------------4422-|
Eb|----------------------------|

Verse 1
Gb|------------------------------------------|
Db|------------------------------------------|
Ab|-----755557----75555------45555-----45424-|
Eb|-5555------5555------2222------00000------|

Gb|-------------------------------------------|
Db|-------------------------------------------|
Ab|-----755557----755557-----455557-----24542-|
Eb|-5555------5555------2222-------00000------|


Chorus 1
Gb|---------------------------------------------------|
Db|------------------------------7------222222200-----|
Ab|-5555555------77777----2455555----------------4422-|
Eb|--------555555-----5-55--------555555--------------|


Verse 2
Gb|-------------------------------------------|
Db|-------------------------------------------|
Ab|-----755557----755557-----455557-----45454-|
Eb|-5555------5555------2222-------00000------|

Gb|-------------------------------------------|
Db|-------------------------------------------|
Ab|-----755557----755557-----455557-----24542-|
Eb|-5555------5555------2222-------00000------|

[ Tab from: http://www.guitartabs.cc/tabs/g/green_day/armatage_shanks_btab_ver_6.html ]
Chorus 2
Gb|---------------------------------------------------|
Db|------------------------------7------222222200-----|
Ab|-5555555------77777----2455555----------------4422-|
Eb|--------555555-----5-55--------555555--------------|


Bridge
Gb|--------------------------------------------------|
Db|------20------------20-------------767------00----|
Ab|-00000---------00000---------555555---777777--4422|
Eb|--------2222224-------2222224---------------------|

Gb|--------------------------------------------------|
Db|------20------------20-------------767------------|
Ab|-00000---------00000---------555555---7-----------|
Eb|--------2222224-------2222224---------------------|


Verse 3
Gb|-------------------------------------------|
Db|-------------------------------------------|
Ab|-----755557----755557-----455557-----45454-|
Eb|-5555------5555------2222-------00000------|

Gb|-------------------------------------------|
Db|-------------------------------------------|
Ab|-----755557----755557-----455557-----24542-|
Eb|-5555------5555------2222-------00000------|


Chorus 3
Gb|---------------------------------------------|
Db|------------------------------7------2222222-|
Ab|-5555555------77777----2455555---------------| x2
Eb|--------555555-----5-55--------555555--------| 

Outro
Gb|-----------------------------|
Db|-222222222222222222222222222-|
Ab|-----------------------------|
Eb|-----------------------------|
Comments