Green Day - Armatage Shanks Chords & Tabs

 

Armatage Shanks Chords & Tabs

Green Day Chords & Tabs

Version: 5 Type: Bass Tab 0 ratings
1 star 2 stars 3 stars 4 stars 5 stars
comments

Armatage Shanks Bass Tab

Underated song by Green day off their Insomniac album called Armatage Shanks

First Tab Enjoy

This song may be in Drop tuning but you can play it in standard also

Drum Intro(bass intro starts after Billie Joe goes ssssssh)

Intro    (0:05)
G-------------------------------|
D-------------------------------|
A---66666666666666666666/4/3----|
E-------------------------------|

Verse 1    (0:10)
G------------------------------------------------------------------------|
D--------------------------------------3-333333--------------------------|
A-------6/4-4444444-------6/4-4444444----------4-444444-6-666666666/4/0--|
E--4-444-------------4-444-----------------------------------------------|2x

Chorus 1     (0:31)
G------------------------------------------------------|
D------------------------------------------------------|
A-44444/666666/44444----666666/44444-----666666666/4/3-|
E-------------------4444------------4444------ --------|

Verse 2 riff  (0:40)
G------------------------------------------------------------------------|
D--------------------------------------3-333333--------------------------|
A-------6/4-4444444-------6/4-4444444----------4-444444-6-666666666/4/0--|
E--4-444-------------4-444-----------------------------------------------|2x
[ Tab from: http://www.guitartabs.cc/tabs/g/green_day/armatage_shanks_btab_ver_5.html ]
Chorus 2     (1:01)
G------------------------------------------------------|
D------------------------------------------------------|
A-44444/666666/44444----666666/44444-----666666666/4/3-|
E-------------------4444------------4444---------------|

Bridge (Whoa Oh) (1:11)
G-----------------------------------------------------|
D---------------------------------------------/3------|
A--444444------444444------66666666666/4444444--/4/0--|
E--------444444------444444---------------------------|repeat at 1:21
but the second time stop right here!! and wait for drums

Verse 3 (come back at 1:31)
G------------------------------------------------------------------------|
D--------------------------------------3-333333--------------------------|
A-------6/4-4444444-------6/4-4444444----------4-444444-6-666666666/4/0--|
E--4-444-------------4-444-----------------------------------------------|2x

Chorus 3     (1:51)
G------------------------------------------------------|
D------------------------------------------------------|
A-44444/666666/44444----666666/44444-----666666666/4/3-|
E-------------------4444------------4444---------------| repeat and on the second time 
6"s going till end of song at about 2:14!
That' it!
Fast but fun song to play! Good Luck
email me for questions and  such at: samrucker@comcast.net
Comments