Green Day - Are We The Waiting Chords & Tabs

 

Are We The Waiting Chords & Tabs

Green Day Chords & Tabs

Version: 1 Type: Bass Tab 0 ratings
1 star 2 stars 3 stars 4 stars 5 stars
comments

Are We The Waiting Bass Tab

Verse:
G-----------------------------------      ----------------------------|
D-----------------------------------      ----------------------------|
A------------------5---------------- (X3) -9--------7--------5--------| (X2)
E-5---------------------------------      ----------------------------|
[ Tab from: http://www.guitartabs.cc/tabs/g/green_day/are_we_the_waiting_btab.html ]
Chorus:
G-----------------------------------|
D-----------------------------------|
A------------------5----------------| (X2)
E-5---------------------------------|

Outro:
G-----------------------------------|
D-----------------------------------|
A------------------5----------------| (X3)
E-5---------------------------------|
Comments