Green Day - Android Chords & Tabs

 

Android Chords & Tabs

Green Day Chords & Tabs

Version: 2 Type: Tab 0 ratings
1 star 2 stars 3 stars 4 stars 5 stars
comments

Android Tab

Hey my name is jon holmes, here is my tab for android. Its not perfect but
as something to just play its great.



    Bar1             Bar2             Bar3             Bar4

   |1234123412341234|1234123412341234|1234123412341234|1234123412341234|


INTRO:

e--|----------------|
B--|----------------|
G--|-----8----------|
D--|8-8-88--666-333-| x2
A--|8-8-86-x666x333x|
E--|6-6-6--x444x111x|

PM/|.   .   ..  ..  |


MAIN RIFF:

e--|----------------|
B--|----------------|
G--|----------------|
D--|8-88----666-----| x2
A--|8-886-666668-888|
E--|6-666-664448-888|

VERSE(S) ("HEY OLD MAN...")

e--|----------------|----------------|
B--|----------------|----------------|
G--|----------------|8-x-88x-88x-88x-|
D--|8888888888888888|8-x-88x-88x-88x-| x2
A--|8888888888888888|6-x-66x-66x-66x-|
E--|6666666666666666|----------------|

PM/|................|


CHORUS: ("IT MAKES ME WONDER WHEN...")

e--|----------------|----------------|
B--|----------------|----------------|
G--|-------8-88-8888|----------------|
D--|8-8-8888-88-8888|6-6-666---------|
A--|8-8-8886-66-6666|6-6-6668-88-8888|
E--|6-6-666---------|4-4-4448-88-8888|

"WASTE AWAYAYAYAY":
[ Tab from: http://www.guitartabs.cc/tabs/g/green_day/android_tab_ver_2.html ]
e--|----------------|----------------|
B--|----------------|----------------|
G--|----------------|----------------|
D--|8---8---8---8---|----------------| <- A COUPLE OF PARTS DON'T HAVE
A--|8---8---8---8---|8-8-8-8-8-8-8-8-|    GUITAR IN THIS SECOND BAR.
E--|6---6---6---6---|8-8-8-8-8-8-8-8-|

PM/|                |. . . . .       |

INTERLUDE KIND OF THING:


e--|----------------|
B--|----------------|
G--|----------------|
D--|8>--------------| xHOWEVER MANY BARS IT IS 
A--|8>-LET-RING-----|
E--|6>--------------| +A FEW UPWARD PICK SCRAPES

e--|--------6-------|--------4-------|--------3-------|--------1-------|
B--|----------6-----|----------4-----|----------3-----|----------1-----|
G--|------------7---|------------5---|------------4---|------------2---|
D--|8>--------------|6>--------------|5>--------------|3>--------------| x4 
A--|8>------------8-|6>------------6-|5>------------5-|3>------------3-|  
E--|6>------------6-|4>------------4-|3>------------3-|1>------------1-| 

THE 4TH BAR (ABOVE) IS KIND OF WRONG BECAUSE ITS SUPPOSED TO BE PLAYED AT THE 2ND FRET
WITH B OPEN AND G ON FRET 3 HOWEVER, YOU NEED TO TUNE HALF A STEP DOWN TO ACHEIVE THE
RIGHT NOTES, SO IF YOU CAN BE ARSED, THEN DO THAT AND PLAY IT 1 FRET UP FROM WHAT I HAVE
WRITTEN, BUT ITS SUCH A SMALL PART, ITS NOT WORTH BOTHERING.
Comments