Green Day - American Idiot Chords & Tabs

 

American Idiot Chords & Tabs

Green Day Chords & Tabs

Version: 8 Type: Tab 0 ratings
1 star 2 stars 3 stars 4 stars 5 stars
comments

American Idiot Tab

E--------------------------------------|
B--------------------------------------|
G--------7--7-7--------7---------------|
D--7-7-7-7--7-7--5--5--7-7-5-----------|
A--7-7-7-5--5-5--5--5--5-7-5-----------|
E--5-5-5---------3--3----5-3-----------|


E--------------------------------------|
B--------------------------7-----------|
G--------7--7-7--------7---7-----------|
D--7-7-7-7--7-7--5--5--7-7-7-----------|
A--7-7-7-5--5-5--5--5--5-7-------------|
E--5-5-5---------3--3----5-------------|


Chorus

E----------------------------------------------------------------------|
B----------------------------------------------------------------------|
G--7777777777777777------------------9999999999999999------------------|
D--7777777777777777-7777777777777777-9999999999999999-7777777777777777-|
A--5555555555555555-7777777777777777-7777777777777777-7777777777777777-|
E-------------------5555555555555555------------------5555555555555555-|
[ Tab from: http://www.guitartabs.cc/tabs/g/green_day/american_idiot_tab_ver_8.html ]
E----------------------------------------------------------------------|
B----------------------------------------------------------------------|
G--7777777777777777------------------9999999999999999------------------|
D--7777777777777777-7777777777777777-9999999999999999------------------|
A--5555555555555555-7777777777777777-7777777777777777------------------|
E-------------------5555555555555555-----------------------------------|


Outro

E--------------------------------------|
B--------------------------------------|
G--------7--7-7--------7---------------|
D--7-7-7-7--7-7--5-5-5-7-7-------------|
A--7-7-7-5--5-5--5-5-5-5-7-------------|
E--5-5-5---------3-3-3---5-------------|

Solo

E----------------------------------------------------------|
B--7-77-7-77-7-7-5---5-55-5-55-7-5-------------------------|
G------------------7---------------7-6-4-44-6-4-7-6-4------|
D----------------------------------------------------------|
A----------------------------------------------------------|
E----------------------------------------------------------|

E-------------------------------------------------------5--|
B--7-77-7-77-7-7-5---5-55-5-55-7-5--------------------7----|
G------------------7---------------7-6-4-44-6-4-7-6-4------|
D----------------------------------------------------------|
A----------------------------------------------------------|
E----------------------------------------------------------|


Sorry about the solo, its a tad bit wierd i aint great at tabbin
Comments