Green Day - American Idiot Chords & Tabs

 

American Idiot Chords & Tabs

Green Day Chords & Tabs

Version: 6 Type: Tab 0 ratings
1 star 2 stars 3 stars 4 stars 5 stars
comments

American Idiot Tab

Tabbed by:fredrik
Email:flow_fredde@hotmail.com
green days new song,-- it rocks!

Tuning:
[ Tab from: http://www.guitartabs.cc/tabs/g/green_day/american_idiot_tab_ver_6.html ]
main riff
e|-----------------------------------------------------------------------------|
B|-----------------------------------------------------------------------------|
G|------9-9-9-----9------------------------------------------------------------|
D|9-9-9-9-9-9-7-7-9-9----------------------------------------------------------|
A|9-9-9-7-7-7-7-7-7-9----------------------------------------------------------|
E|7-7-7-------5-5---7----------------------------------------------------------|
chorus
e|---------------------------------------------------------------------------|
B|---------------------------------------------------------------------------|
G|7-7-7-7-7-7-7-7-----------------9-9-9-9-9-9-9------------------------------|
D|7-7-7-7-7-7-7-7-7-7-7-7-7-7-7-7-9-9-9-9-9-9-9-7-7-7-7-7--------------------|
A|5-5-5-5-5-5-5-5-7-7-7-7-7-7-7-7-7-7-7-7-7-7-7-7-7-7-7-7--------------------|
E|----------------5-5-5-5-5-5-5-5---------------5-5-5-5-5--------------------|
great song u can hear it on mtv.com on the leak.dont bother the times to hit the chord i 
wrote something.you will figure the rythm out.
Comments