Green Day - American Idiot Chords & Tabs

 

American Idiot Chords & Tabs

Green Day Chords & Tabs

Version: 17 Type: Tab 0 ratings
1 star 2 stars 3 stars 4 stars 5 stars
comments

American Idiot Tab

   
Tabbed by: Pierre Nadeau
Email: nadeaupierre@hotmail.com

Tuning: Eb, Ab, Db, Gb, Bb, Eb

E-----------------------------------------------------------------------|
B-----------------------------------------------------------------------|
G-11--11-11-11-11-11-11--11--11--11--9--7/9--9-9-9-9-9/11-9--7--6--4--4-|
D-----------------------------------------------------------------------|
A-9---9--9--9--9--9--9---9---9---9---7--5/7--7-7-7-7-7/9--7--5--4--2--2-|
E-----------------------------------------------------------------------|
[ Tab from: http://www.guitartabs.cc/tabs/g/green_day/american_idiot_tab_ver_17.html ]
E--------------------------0-0-5-0-0-7-0-0-9-0-0-7-0-5-|
B------------------------------------------------------|
G---4-4-4-4--/7--6--4----------------------------------|
D------------------------------------------------------|
A---2-2-2-2--------------------------------------------|
E------------------------------------------------------|


E-----------------------------------------------------------------------|
B-----------------------------------------------------------------------|
G-11--11-11-11-11-11-11--11--11--11--9--7/9--9-9-9-9-9/11-9--7--6--4--4-|
D-----------------------------------------------------------------------|
A-9---9--9--9--9--9--9---9---9---9---7--5/7--7-7-7-7-7/9--7--5--4--2--2-|
E-----------------------------------------------------------------------|

E------------------------------------------------------|
B------------------------------10~---------------------|
G---4-4-4-4--/7--6--4----/10---------------------------|
D------------------------------------------------------|
A---2-2-2-2--------------------------------------------|
E------------------------------------------------------|

| /  slide up
| \  slide down
| h  hammer-on
| p  pull-off
| ~  vibrato
| +  harmonic
| x  Mute note
Comments