Green Day - American Idiot Chords & Tabs

 

American Idiot Chords & Tabs

Green Day Chords & Tabs

Version: 2 Type: Bass Tab 2 ratings
1 star 2 stars 3 stars 4 stars 5 stars
comments

American Idiot Bass Tab

This song is right i know it if you wish to comment on it visit me @ iamaskater95@hotmail.com
           Intro
          
          E----444------222--42---444----222-4
          A--------444------4---------444---4-
          D-----------------------------------
          G-----------------------------------
          
          verse
          E----444----222-42
          A--------444---4--
          D-----------------
          G-----------------        x4
          


          chorus.          Ignore the the lines inbetween
          E------------44-44-44-44-----------------------
          A-44-44-44-44-----------66-66-66-66-44-44-44-44
          D---------------------------------------------
          G---------------------------------------------         x2

          intro
          verse
          chorus
          intro x2
          verse
wait for gutar to end main riff then:verse
          Intro
                              
[ Tab from: http://www.guitartabs.cc/tabs/g/green_day/american_idiot_btab_ver_2.html ]
Comments