Green Day - American Idiot Chords & Tabs

 

American Idiot Chords & Tabs

Green Day Chords & Tabs

Version: 1 Type: Bass Tab 3 ratings
1 star 2 stars 3 stars 4 stars 5 stars
comments

American Idiot Bass Tab

Title: "American Idiot"
Artist: Green Day
Album: American Idiot

INTRO (Enter right after the guitar briefly introduces the melody)
G|-----------------------------------------------------------------------------------------------|
D|-----------------------------------------------------------------------------------------------|
A|------------------------------------4--4--------4----------------------------------------------|
E|---------------------------2--4-4/0------0/2--2---4-4------------------------------------------|

G|-----------------------------------------------------------------------------------------------|
D|-----------------------------------------------------------------------------------------------|
A|------------------------------------4--4--------4----------------------------------------------|
E|------------------------------4-4/0------0/2--2---4-2------------------------------------------|

G|----------------------------------------------------0------------------------------------------|
D|----------------------------------------------------0------------------------------------------|
A|------------------------------------4--4--------4---0------------------------------------------|
E|------------------------------4-4/0------0/2--2---4-0------------------------------------------|

VERSE I and II
"Don't wanna be.../Well maybe I'm..."
G|-----------------------------0-----------------------------------------------------------------|
D|-----------------------------0-----------------------------------------------------------------|
A|-----------------------------0-------4--4--------4---------------------------------------------|
E|-----------------------------0-4-4/0------0/2--2---4-2-----------------------------------------|

"Don't want a.../I'm not a..."
G|-----------------------------0-----------------------0-----------------------------------------|
D|-----------------------------0-----------------------0-----------------------------------------|
A|-----------------------------0-------4--4--------4---0-----------------------------------------|
E|-----------------------------0-4-4/0------0/2--2---4-0-----------------------------------------|

"And can you hear.../Now everybody..."
G|-----------------------------0-----------------------------------------------------------------|
D|-----------------------------0-----------------------------------------------------------------|
A|-----------------------------0-------4--4--------4---------------------------------------------|
E|-----------------------------0-4-4/0------0/2--2---4-2-----------------------------------------|

"The subliminal.../And sing along..."
G|-----------------------------0-----------------------------------------------------------------|
D|-----------------------------0-----------------------------------------------------------------|
A|-----------------------------0-------4--4--------4---------------------------------------------|
E|-----------------------------0-4-4/0------0/2--2---4-4-----------------------------------------|

CHORUS I
G|-----------------------------------------------------------------------------------------------|
D|-----------------------------------------------------------------------------------------------|
A|4--4-4-4--4-4--4--4-4---------------------------6--6-6-6--6-6--6--6-6--------------------------|
E|----------------------2-4--4-4-4--4-4--4--4-4-4-----------------------2-4--4-4-4--4-4--4-4--4--|

G|-----------------------------------------------------------------------------------------------|
D|-----------------------------------------------------------------------------------------------|
A|4--4-4-4--4-4--4--4-4---------------------------6--6-6-6--6-6--6--6-6--------------------------|
E|----------------------2-4--4-4-4--4-4--4--4-4-4------------------------------------------------|

G|-----------------------------0-----------------------------------------------------------------|
D|-----------------------------0-----------------------------------------------------------------|
A|-----------------------------0-------4--4--------4---------------------------------------------|
E|-----------------------------0-4-4/0------0/2--2---4-2-----------------------------------------|

G|----------------------------------------------------0------------------------------------------|
D|----------------------------------------------------0------------------------------------------|
A|------------------------------------4--4--------4---0------------------------------------------|
E|------------------------------4-4/0------0/2--2---4-0------------------------------------------|
[ Tab from: http://www.guitartabs.cc/tabs/g/green_day/american_idiot_btab.html ]
CHORUS II
G|-----------------------------------------------------------------------------------------------|
D|-----------------------------------------------------------------------------------------------|
A|4--4-4-4--4-4--4--4-4---------------------------6--6-6-6--6-6--6--6-6--------------------------|
E|----------------------2-4--4-4-4--4-4--4--4-4-4-----------------------2-4--4-4-4--4-4--4-4--4--|

G|-----------------------------------------------------------------------------------------------|
D|-----------------------------------------------------------------------------------------------|
A|4--4-4-4--4-4--4--4-4---------------------------6--6-6-6--6-6--6--6-6--------------------------|
E|----------------------2-4--4-4-4--4-4--4--4-4-4------------------------------------------------|

G|-----------------------------0-----------------------------------------------------------------|
D|-----------------------------0-----------------------------------------------------------------|
A|-----------------------------0-------4--4--------4---------------------------------------------|
E|-----------------------------0-4-4/0------0/2--2---4-2-----------------------------------------|

G|-----------------------------------------------------------------------------------------------|
D|-----------------------------------------------------------------------------------------------|
A|------------------------------------4--4--------4----------------------------------------------|
E|------------------------------4-4/0------0/2--2---4-4------------------------------------------|

BRIDGE
G|-----------------------------------------------------------------------------------------------|
D|-----------------------------------------------------------------------------------------------|
A|4--4-4-4--4-4--4--4-4---------------------------6--6-6-6--6-6--6--6-6--------------------------|
E|----------------------2-4--4-4-4--4-4--4--4-4-4-----------------------2-4--4-4-4--4-4--4-4--4--|

G|-----------------------------------------------------------------------------------------------|
D|-----------------------------------------------------------------------------------------------|
A|4--4-4-4--4-4--4--4-4---------------------------6--6-6-6--6-6--6--6-6--------------------------|
E|----------------------2-4--4-4-4--4-4--4--4-4-4------------------------------------------------|

(=============================================5x's===============================================)
G|----------------------------------------------------0------------------------------------------|
D|----------------------------------------------------0------------------------------------------|
A|------------------------------------4--4--------4---0------------------------------------------|
E|------------------------------4-4/0------0/2--2---4-0------------------------------------------|

CHORUS III
G|-----------------------------------------------------------------------------------------------|
D|-----------------------------------------------------------------------------------------------|
A|4--4-4-4--4-4--4--4-4---------------------------6--6-6-6--6-6--6--6-6--------------------------|
E|----------------------2-4--4-4-4--4-4--4--4-4-4-----------------------2-4--4-4-4--4-4--4-4--4--|

G|-----------------------------------------------------------------------------------------------|
D|-----------------------------------------------------------------------------------------------|
A|4--4-4-4--4-4--4--4-4---------------------------6--6-6-6--6-6--6--6-6--------------------------|
E|----------------------2-4--4-4-4--4-4--4--4-4-4------------------------------------------------|

Guitar Melody
G|-----------------------------0-----------------------------------------------------------------|
D|-----------------------------0-----------------------------------------------------------------|
A|-----------------------------0-------4--4--------4---------------------------------------------|
E|-----------------------------0-4-4/0------0/2--2---4-2-----------------------------------------|

G|-----------------------------------------------------------------------------------------------|
D|-----------------------------------------------------------------------------------------------|
A|------------------------------------4--4--------4----------------------------------------------|
E|------------------------------4-4/0------0/2--2---4-4------------------------------------------|

G|-----------------------------------------------------------------------------------------------|
D|-----------------------------------------------------------------------------------------------|
A|------------------------------------4--4--------4----------------------------------------------|
E|------------------------------4-4/0------0/2--2---4-2------------------------------------------|

Guitar Again
G|-----------------------------------------------------------------------------------------------|
D|-----------------------------------------------------------------------------------------------|
A|------------------------------------------------4-4--------------------------------------------|
E|----------------------------------------------2-----4------------------------------------------|

GREEN DAY ROCKS!!!!!
Comments