Green Day - All The Time Chords & Tabs

 

All The Time Chords & Tabs

Green Day Chords & Tabs

Version: 3 Type: Bass Tab 0 ratings
1 star 2 stars 3 stars 4 stars 5 stars
comments

All The Time Bass Tab

Tabbed by Adam Amann
Greenday-All The Time

guitar intro..2X

E------5--0------5--0-|
A-7-7-5----7-7-5------|
D---------------------|
G---------------------|(repeat till refrain)
[ Tab from: http://www.guitartabs.cc/tabs/g/green_day/all_the_time_btab_ver_3.html ]
ref.
E-4h5-5--5-5-5-3--3-3-3---------0-|
A-----------------------5-5-5-5---|
D---------------------------------|
G---------------------------------|

Bridge.
E-5-----3------|
A--4hm-4-2h3-2-|
D--------------|
G--------------|

this tab is pretty good, and im pretty sure theres nothing wrong with it.
Please rate this tab!!
Comments