Green Day - 86 Chords & Tabs

 

86 Chords & Tabs

Green Day Chords & Tabs

Version: 4 Type: Tab 0 ratings
1 star 2 stars 3 stars 4 stars 5 stars
comments

86 Tab

   
Song: 86
Band: Green day
Tuning: Standard
Tabbed by: Wendell t. wolf
____________________________________
Riff 1:
e|----------------------------------
b|----------------------------------
g|-888888---------------------------
d|-888888-555555-666666-666666------
a|-666666-555555-666666-666666------
e|--------333333-444444-444444------
____________________________________
Riff 2:
e|----------------------------------
d|----------------------------------
g|-8xxxxxxxxxxxxxxx-----------------
d|-8xxxxxxxxxxxxxxx-8xxxxxxx8xxxxxxx
a|-6xxxxxxxxxxxxxxx-8xxxxxxx8xxxxxxx
e|------------------6xxxxxxx6xxxxxxx

e|----------------------------------
b|----------------------------------
g|------------------8xxxxxxx8x8-----
d|-6xxxxxxx6xxxxxxx-8xxxxxxx8x8-66--
a|-6xxxxxxx6xxxxxxx-6xxxxxxx6x6-66--
e|-4xxxxxxx4xxxxxxx-------------44--
____________________________________
Riff 3:
e|----------------------------------
d|----------------------------------
g|-8xxxxxxxxxxxxxxx-----------------
d|-8xxxxxxxxxxxxxxx-8xxxxxxx8x888888
a|-6xxxxxxxxxxxxxxx-8xxxxxxx8x888888
e|------------------6xxxxxxx6x666666
[ Tab from: http://www.guitartabs.cc/tabs/g/green_day/86_tab_ver_4.html ]
e|----------------------------------
b|----------------------------------
g|------------------8888888888888888
d|-6666666666666666-8888888888888888
a|-6666666666666666-6666666666666666
e|-4444444444444444-----------------
____________________________________
Riff 4:
e|----------------------------------
b|----------------------------------
g|----------------------------------
d|-8888888888888888-6666666666666666
a|-8888888888888888-6666666666666666
e|-6666666666666666-4444444444444444
____________________________________
Riff 5:
e|----------------------------------
b|----------------------------------
g|----------------------------------
d|-88888-6--------------------------
a|-88888-6--------------------------
e|-66666-4--------------------------
____________________________________
Riff 6:
e|----------------------------------
b|----------------------------------
g|----------------------------------
d|-88888-6666666666666666-----------
a|-88888-6666666666666666-----------
e|-66666-4444444444444444-----------

Song Order:
Riff 1 x 2
Riff 2 x 1
Riff 3 x 1
Riff 4 x 2
Riff 1 x 4
Riff 2 x 1
Riff 3 x 1
Riff 4 x 2
Riff 1 x 8
Riff 5 x 1
Riff 6 x 1
Riff 1 x 4
Riff 5 x 1

Hope this helps:
Wendell t. wolf
Comments