Green Day - 86 Chords & Tabs

 

86 Chords & Tabs

Green Day Chords & Tabs

Version: 1 Type: Tab 2 ratings
1 star 2 stars 3 stars 4 stars 5 stars
comments

86 Tab

Tabbed by: Sam Champness
Song: 86
Tunning: half step down

||------------|e|-----------------------------------|
||------------|B|-----------------------------------|
||------------|G|-9-9-9-9-9-------------------------|
||PICK-SLIDE>-|D|-9-9-9-9-9--6-6-6-6-6-6--7-7-7-7---|
||------------|A|-7-7-7-7-7--6-6-6-6-6-6--7-7-7-7---|
||------------|E|------------4-4-4-4-4-4--5-5-5-5---|

Verse (x2, palm mute)
e|-----------------------------------------|
B|-----------------------------------------|
G|-----------------------------------------|
D|-2-2-2--9-9-9--7-7-7--2-2-2--7-7--2-2-2--|
A|-2-2-2--9-9-9--7-7-7--2-2-2--7-7--2-2-2--|
E|-0-0-0--7-7-7--5-5-5--0-0-0--5-5--0-0-0--|
[ Tab from: http://www.guitartabs.cc/tabs/g/green_day/86_tab.html ]
Pre-Chorus (x2)
e|-------------------------|
B|-------------------------|
G|-------------------------|
D|-9-9-9-9-9---7-7-7-7-7---|
A|-9-9-9-9-9---7-7-7-7-7---|
E|-7-7-7-7-7---5-5-5-5-5---|

Chorus (x4)
e|--------------------------------|
B|--------------------------------|
G|-9-9-9-9------------------------|
D|-9-9-9-9--6-6-6-6--7-7-7-7-7----|
A|-7-7-7-7--6-6-6-6--7-7-7-7-7----|
E|----------4-4-4-4--5-5-5-5-5----|

Bridge  
e|----------------------||----------------|
B|----------------------||----------------|
G|9-9-9-----------------||----------------|
D|9-9-9--6-6-6--7-7-7---||-9-9--7--9-9--7-|
A|7-7-7--6-6-6--7-7-7---||-9-9--7--9-9--7-|
E|-------4-4-4--5-5-5-X4||-7-7--5--7-7--5-|

End
|------------|-------|
|------------|-------|
|------------|-------|
|END ON THIS |-9-9--7|
|------------|-9-9--7|
|------------|-7-7--5| ENJOY!!!

Order

Chorus chords x4
Verse 1
Pre-Chorus
Chorus
Verse 2
Pre-Chorus
Chorus
Bridge
Chorus
				
Comments