Green Day - 80 Chords & Tabs

 

80 Chords & Tabs

Green Day Chords & Tabs

Version: 2 Type: Tab 0 ratings
1 star 2 stars 3 stars 4 stars 5 stars
comments

80 Tab

   
-------------------------------------------------------------------------------
                               80 - GREEN DAY
-------------------------------------------------------------------------------
Tabbed by: Mr-Softy
Email: mrsofty@f2s.com

Info: I usually play this Half a step down but i'll include it in Standard
      tuning aswell. I'm pritty sure this is 100% correct.
      Any Suggestions/Improvements please email me and i will update this.


-------------------------
Tuning: Half Step Down
-------------------------

INTRO

e|-----|
B|-----|
G|--7--|
D|--7--| Let Ring
A|--5--|
E|-----|


VERSE 1

(NO GUITAR PLAYED)


CHORUS

e|--------------------|
B|--------------------|
G|--7-7-7-7--5-5-5-5--|
D|--7-7-7-7--5-5-5-5--| X 4
A|--5-5-5-5--3-3-3-3--|
E|--------------------|

CHORUS CONT.

e|---------------------------------------------------------------------------------|
B|---------------------------------------------------------------------------------|
G|-----------7-7-7-7--9-9-9-9--5-5-5-5-5-5-5-5--------------------5-5-5-5-5-5-5-5--|
D|--5-5-5-5--7-7-7-7--9-9-9-9--5-5-5-5-5-5-5-5--5-5-5-5--3-3-3-3--5-5-5-5-5-5-5-5--| X 2
A|--5-5-5-5--5-5-5-5--7-7-7-7--3-3-3-3-3-3-3-3--5-5-5-5--3-3-3-3--3-3-3-3-3-3-3-3--|
E|--3-3-3-3-------------------------------------3-3-3-3--1-1-1-1-------------------|

VERSE II

e|--------------------------------------|
B|--------------------------------------|
G|--7-7-7-7--5-5-5-5--4-4-4-4--3-3-3-3--|
D|--7-7-7-7--5-5-5-5--4-4-4-4--3-3-3-3--| X 4
A|--5-5-5-5--3-3-3-3--2-2-2-2--1-1-1-1--|
E|--------------------------------------|

CHORUS II

e|--------------------|
B|--------------------|
G|--7-7-7-7--5-5-5-5--|
D|--7-7-7-7--5-5-5-5--| X 4
A|--5-5-5-5--3-3-3-3--|
E|--------------------|

CHORUS II CONT.

e|---------------------------------------------------------------------------------|
B|---------------------------------------------------------------------------------|
G|-----------7-7-7-7--9-9-9-9--5-5-5-5-5-5-5-5--------------------5-5-5-5-5-5-5-5--|
D|--5-5-5-5--7-7-7-7--9-9-9-9--5-5-5-5-5-5-5-5--5-5-5-5--3-3-3-3--5-5-5-5-5-5-5-5--| X 2
A|--5-5-5-5--5-5-5-5--7-7-7-7--3-3-3-3-3-3-3-3--5-5-5-5--3-3-3-3--3-3-3-3-3-3-3-3--|
E|--3-3-3-3-------------------------------------3-3-3-3--1-1-1-1-------------------|

INTERLUDE

e|-------------------------------------|
B|-------------------------------------|
G|--5-5-5-5--7-7-7-7-------5-----------|
D|--5-5-5-5--7-7-7-7--5-5--5--5-5-5-5--| X 2
A|--3-3-3-3--5-5-5-5--5-5--3--5-5-5-5--|
E|--------------------3-3-----3-3-3-3--|

INTERLUDE CONT.
e|-------------------------------------------------------|
B|-------------------------------------------------------|
G|--5-5-5-5--7-7-7-7-------------------------------------|
D|--5-5-5-5--7-7-7-7--5-5-5-5--3-3-3-3-3-3-3-3--5-5-5-5--|
A|--3-3-3-3--5-5-5-5--5-5-5-5--3-3-3-3-3-3-3-3--5-5-5-5--|
E|--------------------3-3-3-3--1-1-1-1-1-1-1-1--3-3-3-3--|

BRIDGE + SOLO

e|--------------------------------------|
B|--------------------------------------|
G|--7-7-7-7--5-5-5-5--4-4-4-4--3-3-3-3--|
D|--7-7-7-7--5-5-5-5--4-4-4-4--3-3-3-3--| X 4
A|--5-5-5-5--3-3-3-3--2-2-2-2--1-1-1-1--|
E|--------------------------------------|

CHORUS III

e|--------------------|
B|--------------------|
G|--7-7-7-7--5-5-5-5--|
D|--7-7-7-7--5-5-5-5--| X 4
A|--5-5-5-5--3-3-3-3--|
E|--------------------|

CHORUS III CONT.

e|---------------------------------------------------------------------------------|
B|---------------------------------------------------------------------------------|
G|-----------7-7-7-7--9-9-9-9--5-5-5-5-5-5-5-5--------------------5-5-5-5-5-5-5-5--|
D|--5-5-5-5--7-7-7-7--9-9-9-9--5-5-5-5-5-5-5-5--5-5-5-5--3-3-3-3--5-5-5-5-5-5-5-5--| X 2
A|--5-5-5-5--5-5-5-5--7-7-7-7--3-3-3-3-3-3-3-3--5-5-5-5--3-3-3-3--3-3-3-3-3-3-3-3--|
E|--3-3-3-3-------------------------------------3-3-3-3--1-1-1-1-------------------|

OUTRO

e|--------------------------------------|
B|--------------------------------------|
G|--7-7-7-7--5-5-5-5--4-4-4-4--3-3-3-3--|
D|--7-7-7-7--5-5-5-5--4-4-4-4--3-3-3-3--| X 2
A|--5-5-5-5--3-3-3-3--2-2-2-2--1-1-1-1--|
E|--------------------------------------|

e|--------------------------------------|
B|--------------------------------------|
G|--7-7-7-7--5-5-5-5--4-4-4-4--3-3-3-3--|
D|--x-x-x-x--x-x-x-x--x-x-x-x--x-x-x-x--| X 2 (SLOWLY FADE OUT)
A|--5-5-5-5--3-3-3-3--2-2-2-2--1-1-1-1--|
E|--------------------------------------|



-------------------------
Tuning: STANDARD
-------------------------

Exaclty the same as above, just move everything down a fret.

INTRO

e|-----|
B|-----|
G|--6--|
D|--6--| Let Ring
A|--4--|
E|-----|


VERSE 1

(NO GUITAR PLAYED)


CHORUS
[ Tab from: http://www.guitartabs.cc/tabs/g/green_day/80_tab_ver_2.html ]
e|--------------------|
B|--------------------|
G|--6-6-6-6--4-4-4-4--|
D|--6-6-6-6--4-4-4-4--| X 4
A|--4-4-4-4--2-2-2-2--|
E|--------------------|

CHORUS CONT.

e|---------------------------------------------------------------------------------|
B|---------------------------------------------------------------------------------|
G|-----------6-6-6-6--8-8-8-8--4-4-4-4-4-4-4-4--------------------4-4-4-4-4-4-4-4--|
D|--4-4-4-4--6-6-6-6--8-8-8-8--4-4-4-4-4-4-4-4--4-4-4-4--2-2-2-2--4-4-4-4-4-4-4-4--| X 2
A|--4-4-4-4--4-4-4-4--6-6-6-6--2-2-2-2-2-2-2-2--4-4-4-4--2-2-2-2--2-2-2-2-2-2-2-2--|
E|--2-2-2-2-------------------------------------2-2-2-2--0-0-0-0-------------------|

VERSE II

e|--------------------------------------|
B|-----------------------------2-2-2-2--|
G|--6-6-6-6--4-4-4-4--3-3-3-3--2-2-2-2--|
D|--6-6-6-6--4-4-4-4--3-3-3-3--2-2-2-2--| X 4
A|--4-4-4-4--2-2-2-2--1-1-1-1-----------|
E|--------------------------------------|

CHORUS II

e|--------------------|
B|--------------------|
G|--6-6-6-6--4-4-4-4--|
D|--6-6-6-6--4-4-4-4--| X 4
A|--4-4-4-4--2-2-2-2--|
E|--------------------|

CHORUS II CONT.

e|---------------------------------------------------------------------------------|
B|---------------------------------------------------------------------------------|
G|-----------6-6-6-6--8-8-8-8--4-4-4-4-4-4-4-4--------------------4-4-4-4-4-4-4-4--|
D|--4-4-4-4--6-6-6-6--8-8-8-8--4-4-4-4-4-4-4-4--4-4-4-4--2-2-2-2--4-4-4-4-4-4-4-4--| X 2
A|--4-4-4-4--4-4-4-4--6-6-6-6--2-2-2-2-2-2-2-2--4-4-4-4--2-2-2-2--2-2-2-2-2-2-2-2--|
E|--2-2-2-2-------------------------------------2-2-2-2--0-0-0-0-------------------|

INTERLUDE

e|-------------------------------------|
B|-------------------------------------|
G|--4-4-4-4--6-6-6-6-------4-----------|
D|--4-4-4-4--6-6-6-6--4-4--4--4-4-4-4--| X 2
A|--2-2-2-2--4-4-4-4--4-4--2--4-4-4-4--|
E|--------------------2-2-----2-2-2-2--|

INTERLUDE CONT.

e|-------------------------------------------------------|
B|-------------------------------------------------------|
G|--4-4-4-4--6-6-6-6-------------------------------------|
D|--4-4-4-4--6-6-6-6--4-4-4-4--2-2-2-2-2-2-2-2--4-4-4-4--|
A|--2-2-2-2--4-4-4-4--4-4-4-4--2-2-2-2-2-2-2-2--4-4-4-4--|
E|--------------------2-2-2-2--0-0-0-0-0-0-0-0--2-2-2-2--|

BRIDGE + SOLO

e|--------------------------------------|
B|-----------------------------2-2-2-2--|
G|--6-6-6-6--4-4-4-4--3-3-3-3--2-2-2-2--|
D|--6-6-6-6--4-4-4-4--3-3-3-3--2-2-2-2--| X 4
A|--4-4-4-4--2-2-2-2--1-1-1-1-----------|
E|--------------------------------------|

CHORUS III

e|--------------------|
B|--------------------|
G|--6-6-6-6--4-4-4-4--|
D|--6-6-6-6--4-4-4-4--| X 4
A|--4-4-4-4--2-2-2-2--|
E|--------------------|

CHORUS III CONT.

e|---------------------------------------------------------------------------------|
B|---------------------------------------------------------------------------------|
G|-----------6-6-6-6--8-8-8-8--4-4-4-4-4-4-4-4--------------------4-4-4-4-4-4-4-4--|
D|--4-4-4-4--6-6-6-6--8-8-8-8--4-4-4-4-4-4-4-4--4-4-4-4--2-2-2-2--4-4-4-4-4-4-4-4--| X 2
A|--4-4-4-4--4-4-4-4--6-6-6-6--2-2-2-2-2-2-2-2--4-4-4-4--2-2-2-2--2-2-2-2-2-2-2-2--|
E|--2-2-2-2-------------------------------------2-2-2-2--0-0-0-0-------------------|

OUTRO

e|--------------------------------------|
B|-----------------------------2-2-2-2--|
G|--6-6-6-6--4-4-4-4--3-3-3-3--2-2-2-2--|
D|--6-6-6-6--4-4-4-4--3-3-3-3--2-2-2-2--| X 2
A|--4-4-4-4--2-2-2-2--1-1-1-1-----------|
E|--------------------------------------|

e|--------------------------------------|
B|--------------------------------------|
G|--6-6-6-6--4-4-4-4--3-3-3-3-----------|
D|--x-x-x-x--x-x-x-x--x-x-x-x--7-7-7-7--| X 2 (SLOWLY FADE OUT)
A|--4-4-4-4--2-2-2-2--1-1-1-1--x-x-x-x--|
E|-----------------------------5-5-5-5--|


-------------------------
LYRICS
-------------------------

My mental stability reaches its bitter end
And all my sense are coming unglued
Is there any cure for this disease
Someone called love
Not as long as there are girls like you

Everything she does questions my mental health
It makes me loose control
I just can't trust myself

If anyone can hear me slap some sense in me
But you turn your head and I end up talking to myself
Anxiety has got me strung out and frustrated
So I loose my head or I band it up against the wall

Sometimes I wonder if I should be left alone
And lock myself up in a padded room
I'd sit and spew my guts out to the open air
No one wants to hear a drunken fool

I do not mind if this goes on
Cause now it seems I'm too far gone
I must admit I enjoy myself
80 please keep taking me away 



| /  slide up
| \  slide down
| h  hammer-on
| p  pull-off
| ~  vibrato
| +  harmonic
| x  Mute note
===============================================================================
Comments