Green Day - 2000 Light Years Away Chords & Tabs

 

2000 Light Years Away Chords & Tabs

Green Day Chords & Tabs

Version: 8 Type: Tab 0 ratings
1 star 2 stars 3 stars 4 stars 5 stars
comments

2000 Light Years Away Tab

   
2000 Light Years Away
Artist: Green Day
Album: Kerplunk! (1992)
Tabbed By: TriforceTrev
Email: triforcetrev@gmail.com
Difficulty: Novice
Tuning: Half-Step Down (If you don't know how to tune half-step down it's
real simple: just capo the first fret and tune your guitar to standard)
Notes: This is my first tab ever, and I spent a lot of time on it because
there weren't any good ones on here. If you have any questions, comments, or
corrections, please feel free to email me. Enjoy!

Intro x4
eb|-------------------------------|
Bb|-------------------------------|
Gb|--4--4-4-4---------------------|
Db|--4--4-4-4-4--6--4-4--4-4-4-4--|
Ab|--2--2-2-2-4--6--4-4--4-4-4-4--|
Eb|-----------2--4--2-2--2-2-2-2--|


Verse a x4
eb|------------------------------|
Bb|------------------------------|
Gb|--4--4-4-4-4-4----------------|
Db|--4--4-4-4-4-4-4--4-4--4-4-4--|
Ab|--2--2-2-2-2-2-4--4-4--4-4-4--|
Eb|---------------2--2-2--2-2-2--|


Chorus a
eb|---------------------------------------------------------------------|
Bb|---------------------------------------------------------------------|
Gb|---------------4--4-4-4--4-4-4---------------------------------------|
Db|--6--6-6-6-6-6-4--4-4-4--4-4-4-6-6-xxx-4--4-4-4--4-4-4-2--2-2-2-2-2--|
Ab|--6--6-6-6-6-6-2--2-2-2--2-2-2-6-6-xxx-4--4-4-4--4-4-4-2--2-2-2-2-2--|
Eb|--4--4-4-4-4-4-----------------4-4-xxx-2--2-2-2--2-2-2-0--0-0-0-0-0--|

eb|---------------------------------------------------|
Bb|---------------------------------------------------|
Gb|------------------3/4-4-4-3/4-4-4-3/4-4-4-3/4-4-4--|
Db|--4--4-4-4--4-4-4-3/4-4-4-3/4-4-4-3/4-4-4-3/4-4-4--|
Ab|--4--4-4-4--4-4-4-1/2-2-2-1/2-2-2-1/2-2-2-1/2-2-2--|
Eb|--2--2-2-2--2-2-2----------------------------------|


Chorus b
eb|---------------------------------------------------------------------|
Bb|---------------------------------------------------------------------|
Gb|---------------4--4-4-4--4-4-4---------------------------------------|
Db|--6--6-6-6-6-6-4--4-4-4--4-4-4-6-6-xxx-4--4-4-4--4-4-4-2--2-2-2-2-2--|
Ab|--6--6-6-6-6-6-2--2-2-2--2-2-2-6-6-xxx-4--4-4-4--4-4-4-2--2-2-2-2-2--|
Eb|--4--4-4-4-4-4-----------------4-4-xxx-2--2-2-2--2-2-2-0--0-0-0-0-0--|

eb|-------------------|
Bb|-------------------|
Gb|-------------------|
Db|--4--4-4-4--4-4-4--|
Ab|--4--4-4-4--4-4-4--|
Eb|--2--2-2-2--2-2-2--|


Intro x4
eb|-------------------------------|
Bb|-------------------------------|
Gb|--4--4-4-4---------------------|
Db|--4--4-4-4-4--6--4-4--4-4-4-4--|
Ab|--2--2-2-2-4--6--4-4--4-4-4-4--|
Eb|-----------2--4--2-2--2-2-2-2--|


Verse b x4                       
eb|-----------------------------|
Bb|-----------------------------|
Gb|------4-----4----------------|
Db|--4-4-4-4-4-4-4---4-------4--|
Ab|--2-2-2-2-2-2-4-4-4-4-4-4-4--|
Eb|--------------2-2-2-2-2-2-2--|
  PM * *   * *     *   * * *

Release PM 4th time and play this into the Chorus 
eb|-------------------|
Bb|-------------------|
Gb|-------------------|
Db|--4--4-4--4-4-4-4--|
Ab|--4--4-4--4-4-4-4--|
Eb|--2--2-2--2-2-2-2--|


Chorus a
eb|---------------------------------------------------------------------|
Bb|---------------------------------------------------------------------|
Gb|---------------4--4-4-4--4-4-4---------------------------------------|
Db|--6--6-6-6-6-6-4--4-4-4--4-4-4-6-6-xxx-4--4-4-4--4-4-4-2--2-2-2-2-2--|
Ab|--6--6-6-6-6-6-2--2-2-2--2-2-2-6-6-xxx-4--4-4-4--4-4-4-2--2-2-2-2-2--|
Eb|--4--4-4-4-4-4-----------------4-4-xxx-2--2-2-2--2-2-2-0--0-0-0-0-0--|
[ Tab from: http://www.guitartabs.cc/tabs/g/green_day/2000_light_years_away_tab_ver_8.html ]
eb|---------------------------------------------------|
Bb|---------------------------------------------------|
Gb|------------------3/4-4-4-3/4-4-4-3/4-4-4-3/4-4-4--|
Db|--4--4-4-4--4-4-4-3/4-4-4-3/4-4-4-3/4-4-4-3/4-4-4--|
Ab|--4--4-4-4--4-4-4-1/2-2-2-1/2-2-2-1/2-2-2-1/2-2-2--|
Eb|--2--2-2-2--2-2-2----------------------------------|


Chorus b
eb|---------------------------------------------------------------------|
Bb|---------------------------------------------------------------------|
Gb|---------------4--4-4-4--4-4-4---------------------------------------|
Db|--6--6-6-6-6-6-4--4-4-4--4-4-4-6-6-xxx-4--4-4-4--4-4-4-2--2-2-2-2-2--|
Ab|--6--6-6-6-6-6-2--2-2-2--2-2-2-6-6-xxx-4--4-4-4--4-4-4-2--2-2-2-2-2--|
Eb|--4--4-4-4-4-4-----------------4-4-xxx-2--2-2-2--2-2-2-0--0-0-0-0-0--|

eb|-------------------|
Bb|-------------------|
Gb|-------------------|
Db|--4--4-4-4--4-4-4--|
Ab|--4--4-4-4--4-4-4--|
Eb|--2--2-2-2--2-2-2--|


Intro x4                           On last time let ring
eb|-------------------------------|-----|
Bb|-------------------------------|-----|
Gb|--4--4-4-4---------------------|--4~-|
Db|--4--4-4-4-4--6--4-4--4-4-4-4--|--4~-|
Ab|--2--2-2-2-4--6--4-4--4-4-4-4--|--2~-|
Eb|-----------2--4--2-2--2-2-2-2--|-----|


Breakdown a (I hope this is right, if not let me know)
eb|------7-----------|
Bb|--5/7---7-5-7-----|
Gb|--------------4~--|
Db|------------------|
Ab|------------------|
Eb|------------------|

Breakdown b (This is tough to time, but listening to it you can get it down)
eb|---------------------------------------------------|
Bb|---------------------------------------------------|
Gb|---------------------------------------------------|
Db|---------------------------------------------------|
Ab|---------------------------------------------------|
Eb|--12\-(slide and strum really fast down the neck)--|
  PM * slowly release it as you go down


Chorus a
eb|---------------------------------------------------------------------|
Bb|---------------------------------------------------------------------|
Gb|---------------4--4-4-4--4-4-4---------------------------------------|
Db|--6--6-6-6-6-6-4--4-4-4--4-4-4-6-6-xxx-4--4-4-4--4-4-4-2--2-2-2-2-2--|
Ab|--6--6-6-6-6-6-2--2-2-2--2-2-2-6-6-xxx-4--4-4-4--4-4-4-2--2-2-2-2-2--|
Eb|--4--4-4-4-4-4-----------------4-4-xxx-2--2-2-2--2-2-2-0--0-0-0-0-0--|

eb|---------------------------------------------------|
Bb|---------------------------------------------------|
Gb|------------------3/4-4-4-3/4-4-4-3/4-4-4-3/4-4-4--|
Db|--4--4-4-4--4-4-4-3/4-4-4-3/4-4-4-3/4-4-4-3/4-4-4--|
Ab|--4--4-4-4--4-4-4-1/2-2-2-1/2-2-2-1/2-2-2-1/2-2-2--|
Eb|--2--2-2-2--2-2-2----------------------------------|


Chorus b
eb|---------------------------------------------------------------------|
Bb|---------------------------------------------------------------------|
Gb|---------------4--4-4-4--4-4-4---------------------------------------|
Db|--6--6-6-6-6-6-4--4-4-4--4-4-4-6-6-xxx-4--4-4-4--4-4-4-2--2-2-2-2-2--|
Ab|--6--6-6-6-6-6-2--2-2-2--2-2-2-6-6-xxx-4--4-4-4--4-4-4-2--2-2-2-2-2--|
Eb|--4--4-4-4-4-4-----------------4-4-xxx-2--2-2-2--2-2-2-0--0-0-0-0-0--|

eb|-------------------|
Bb|-------------------|
Gb|-------------------|
Db|--4--4-4-4--4-4-4--|
Ab|--4--4-4-4--4-4-4--|
Eb|--2--2-2-2--2-2-2--|


Outro x4                           On last time let ring
eb|-------------------------------|-----|
Bb|-------------------------------|-----|
Gb|--4--4-4-4---------------------|--4~-|
Db|--4--4-4-4-4--6--4-4--4-4-4-4--|--4~-|
Ab|--2--2-2-2-4--6--4-4--4-4-4-4--|--2~-|
Eb|-----------2--4--2-2--2-2-2-2--|-----|


Legend:
/ Slide up neck
\ Slide down neck
~ Let Ring
* Palm Mute
Comments