Green Day - 2000 Light Years Away Chords & Tabs

 

2000 Light Years Away Chords & Tabs

Green Day Chords & Tabs

Version: 5 Type: Bass Tab 0 ratings
1 star 2 stars 3 stars 4 stars 5 stars
comments

2000 Light Years Away Bass Tab

Green Day
2000 Light Years Away
Tune 1/2 step down.

Intro:
G|--------------------|
D|---------4----------|
A|--0h2-2-2-----------| (x4)
E|----------4-0-222---|


Verse:
G|--------------|
D|----4---------|
A|-222----------|(x4)
E|-------2v-----|
[ Tab from: http://www.guitartabs.cc/tabs/g/green_day/2000_light_years_away_btab_ver_5.html ]
Chorus:
G|----------- -------------------------------|
D|----------- 4------------------------------|
A|-----2v---- -------------1h2-1h2-1h2-1h2---|
E|-4444----44 2v-0000-2222-------------------|

G|----------- ----------------|
D|----------- 4---------------|
A|-----2v---- ----------------|
E|-4444----442v-0000-2222-----|


Bridge:
G|--------------------|
D|---------4----------|
A|--0h2-2-2-----------| (x8)
E|----------4-0-222---|
Comments