Green Day - 1 Chords & Tabs

 

1 Chords & Tabs

Green Day Chords & Tabs

Version: 1 Type: Tab 5 ratings
1 star 2 stars 3 stars 4 stars 5 stars
comments

1 Tab

   
Song: 16
Band: Green Day

Intro/Verse/Outro:
-------------------0-------
-------4-------2---0-4-4-4-
-------4-------2-----4-4-4-
-------4-------2-2---4-4-4-
-[2-2]-2-[0-0]-0-2---2-2-2-
-------------0-------------

* [] - Palm Mute

[ Tab from: http://www.guitartabs.cc/tabs/g/green_day/1_tab.html ]
Chorus:
C5////  D5////  B5//  
------------------------0------
----------------------0----0-0-
-------------------------------
-------------------------------
-------------------------------
-------------------------------

C5////  D5//// B5/  Bsus/  B5//


Solo:
-------------------------------|
----7-------7-------7----------|
-/8---8--/8---8--/8---8--6--4-*|
------------------------------*|
-------------------------------|
-------------------------------|

Intro
Verse 
Chorus
Verse 
Chorus
Solo
Verse
Chorus
Outro
Comments