Green Day - 1 Chords & Tabs

 

1 Chords & Tabs

Green Day Chords & Tabs

Version: 1 Type: Bass Tab 3 ratings
1 star 2 stars 3 stars 4 stars 5 stars
comments

1 Bass Tab

Song: 16
Artist: Green Day
Album: 39/Smooth 

Intro (Right before you start to play the verse)
G--2h4-2h4--
D-----------
A-----------
E-----------

Verse
G-----------------------2h4-2h4--
D--------------2-2-2-------------
A--2-2-2-0-0-0-------2-----------
E--------------------------------

G---------------------------
D--------------2-2-2--------
A--2-2-2-0-0-0-------2-2-2--
E---------------------------

Chorus
G-----------------------------
D-----------------------------
A--3-3-3-5-5-5-2-2-2-0-2-2-2--
E-----------------------------
[ Tab from: http://www.guitartabs.cc/tabs/g/green_day/1_btab.html ]
(Play this when you play the last chorus for the 5rd+7th time) 
G---------------------------------------
D---------------------------------------
A--3-3-3-5-5-5-2-2-2-0-2-2-2-2-3p2-0-2--
E---------------------------------------

Bass Solo (Very easy, but watch the timing)
G------2h4-2h4-2h4---------------
D-----------------------7-6-5-2--
A--2-2--------------2-2----------
E--------------------------------

Outro (Let the last note ring, of course)
G-----------------------
D--------------2-2-2----
A--2-2-2-0-0-0-------2--
E-----------------------

Intro X1
Verse X5
Chorus X4
Verse X5
Chorus X4
Bass Solo X4
Chorus X4
Verse X4
Chorus X8 
Comments