Greeley Estates - Outside Of This Chords & Tabs

 

Outside Of This Chords & Tabs

Greeley Estates Chords & Tabs

Version: 5 Type: Tab

Outside Of This Tab

first tab ever!This is a truly unknown and underrated band. An awesome song too. I might 
more of the song later.

Tuning: Drop D


Guitar 1 (INTRO PT. 1)
E--------------------------- 3x   ----------------------------|
B--------------------------- then ------------------11-11-11--|
G--9-9999-9999-999-10-10-10-      --9-9999-9999-999--x--x--x--|
D--7-7777-7777-777--7--7--7-      --7-7777-7777-777--7--7--7--|
A---------------------------      ----------------------------|
D---------------------------      ----------------------------|

Guitar 1 (INTRO PT. 1)
E------------------------------------------------------------|
B------------------------------------------------------------|
G------------------------------------------------------------|
D--0-0----0-0----0-0----0-0----------------------------------|
A--0-0----0-0----0-0----0-0----------------------------------|
D--0-0----0-0----0-0----0-0----------------------------------|
pm . .    . .    . .    . .
[ Tab from: http://www.guitartabs.cc/tabs/g/greeley_estates/outside_of_this_tab_ver_5.html ]
Both Guitars (INTRO PT. 2)
E------------------------------------------------------|
B------------------------------------------------------|
G------------------------------------------------------|
D--0-000-8-8-8--0-000-8-8-8--0-000-8-8-8--3-333-3-3-3--|
A--0-000-8-8-8--0-000-8-8-8--0-000-8-8-8--3-333-3-3-3--|
D--0-000-8-8-8--0-000-8-8-8--0-000-8-8-8--3-333-2-2-2--|

Guitar 1 (VERSE)
E----------------------------------------------------------------------------|
B----------------------------------------------------------------------------|
G--------9h10p9-----------9h10p9------------9h10p9---12-10-9-12-10-9h10p9----|
D---------------10---------------10---------------10----------------------10-|
D--0-0-0-------------0-0-0------------0-0-0----------------------------------|
A--0-0-0-------------0-0-0------------0-0-0----------------------------------|
D--0-0-0-------------0-0-0------------0-0-0----------------------------------|

E--------------------------------------------------------------------------|
B--------------------------------------------------------------------------|
G-----------9h10p9--------------9h10p9--------------9h10p9-----------------|
D-----------------10------------------10------------------10---------------|
D--10-10-10------------10-10-10------------10-10-10-----------3-3-3-3-3-3--|
A--10-10-10------------10-10-10------------10-10-10-----------3-3-3-3-3-3--|
D--10-10-10------------10-10-10------------10-10-10-----------3-3-3-2-2-2--|
however many times they play it