Greeley Estates - Hidden Track Left For Dead Chords & Tabs

 

Hidden Track Left For Dead Chords & Tabs

Greeley Estates Chords & Tabs

Version: 1 Type: Tab 0 ratings
1 star 2 stars 3 stars 4 stars 5 stars
comments

Hidden Track Left For Dead Tab

left for dead

tabbed by: dallas smith - guitarist of greeley estates

capo on the 4th fret, imagine the capo's the zero point and count this many frets above 
listen to the cd for strumming pattern


intro 1:
e -0------0-------0--------0---0---0---0------|
b -0------0-------0--------0---0---0---0------|
g -0------0-------0--------0---0---0---0------|
d -9------7-------5--------5---5---4---0------|
a -7------5-------3--------2---2---2---2------|
d -x------0-------0--------0---0---0---0------| repeat

verse 1:
e -0------0-------0--------0------------------|
b -0------0-------0--------0------------------|
g -1------4-------2--------2------------------|
d -2------4-------2--------2------------------|
a -2------6-------4--------3------------------|
d -2------x-------x--------0------------------| repeat x3 then

slightly modified intro 2:
e -0------0-------0--------0---0---0---0------|
b -0------0-------0--------0---0---0---0------|
g -0------0-------5--------4---5---4---0------|
d -9------7-------2--------2---2---2---2------|
a -7------5-------3--------3---3---3---3------|
d -x------0-------0--------0---0---0---0------| only once

verse 2 is the exact same as verse 1

do intro 2 and repeat it but the second time it looks like this:
e -0------0-------0--------0------------------|
b -0------0-------0--------0------------------|
g -0------0-------5--------4------------------|
d -9------7-------2--------4------------------|
a -7------5-------3--------2------------------|
d -x------0-------0--------x------------------| into the...
[ Tab from: http://www.guitartabs.cc/tabs/g/greeley_estates/hidden_track_left_for_dead_tab.html ]
CHORUS
e -0->-0-----------0-------0->-0-----------0------|
b -0->-0-----------0-------0->-0-----------0------|
g -4->-6---9---9---4-------4->-6---9---9---9------|
d -4->-6---7---6---2-------4->-6---7---6---9------|
a -2->-4---7---6---2-------2->-4---7---6---7------|
d -x->-x---7---6---2-------x->-x---7---6---x------|

e -0->-0-----------0-------0-------0--------------|
b -0->-0-----------0-------0-------0--------------|
g -4->-6---9---9---4-------6-------9--------------|
d -4->-6---7---6---2-------4-------7--------------|
a -2->-4---7---6---2-------4-------7--------------|
d -x->-x---7---6---2-------4-------7--------------|

verse 3's the same as 1 and 2 then

intro 2 into that prechorus thingie

CHORUS again

BRIDGE
e -0------0------0-------0-------0->-0->-0---|
b -0------0------0-------0-------0->-0->-0---|
g -4------4------6-------4-------2->-4->-4---|
d -2------1------6-------4-------2->-4->-0---|
a -2------2------4-------2-------0->-2->-0---|
d -2------1------x-------x-------x->-x->-0---| repeat x3

the last time looks like this:
e -0------0------0-------0-------------------|
b -0------0------0-------0-------------------|
g -4------4------6-------4-------------------|
d -2------1------6-------4-------------------|
a -2------2------4-------2-------------------|
d -2------1------x-------x-------------------| into...

CHORUS AGAIN x 2

CHORUS LEAD OUT THINGIE:
e -0------0------0-------0-------|
b -0------0------0-------0-------|
g -6------8------9-------8-------|
d -4------6------7-------9-------|
a -4------6------7-------9-------|
d -4------6------7-------9-------|

BONECRUSHING FINALE (h=harmonic)
e -0---h7----0---h7----0---h7----0-------|
b -0----h7---0----h7---0----h7---0-------|
g -0---------0---------0---------1-------|
d -2---------2---------2---------2-------|
a -2---------2---------2---------2-------|
d -2---------2---------2---------2-------|
Comments