Great White - Lady Red Light Chords & Tabs

 

Lady Red Light Chords & Tabs

Great White Chords & Tabs

Version: 2 Type: Tab 0 ratings
1 star 2 stars 3 stars 4 stars 5 stars
comments

Lady Red Light Tab

#-----------------------------------------------------------------------------#
#-- File created with Instab - http://www.pconline.com/~smcarey/instab.html --#
#-----------------------------------------------------------------------------#

Author/Artist: Great White
Title: Lady Red Light
Album: Once Bitten
Transcribed by: Ryan Rychetsky/Rhett Cutshaver
Email: genexrs@cox-internet.com

This is the rhythm parts to the song. Look for the solo later in a different fil
e. A couple of notes;
1) The rhythm under the verses is two layered guitars, as noted.
2) The second verse is basically the same as the first one, with just a little v
ariation. Once you have the first verse down
 you should be able to get the second one.
3) There are a couple of fills spaced throughout the song, which
    we didn't include just to help keep things clear. Most of them aren't very h
ard to figure out.

-----------------------1--|--------------------------------|---------------1--
-----------------------1--|--------------------------------|---------------1--
-5p3*---------------------|------3--5--3h5/6\5---3---------|------------------
----5p3*------------------|5--5--3--5--3h5/6\5---3-5--3--5-|------------------
--------------------------|5--5--------------------5--3--5-|------------------
--------------------------|--------------------------------|------------------
 repeat several times      Rhy Fig. 1                        2nd end - Fig.1  

-------------------------|----------------------------------------------------
-------------------------|----------------------------------------------------
----------3-5-3-5--------|-5-------------------------3--5--3--5---------------
-3-5-3-5-----------------|-5-------3h5---------------3--5--3--5---------------
----------1-3-1-3--------|----------------------------------------------------
-1-3-1-3-----------------|----------------------------------------------------
 Verse 1 (2 gtrs) Repeat     

------------|----------|------------------------------------------------------
------------|----------|------------------------------------------------------
-3--5--3--5-|----------|-8-----------8-----------8--------------8-------------
-3--5--3--5-|----------|-8-----------8-----------8--------------8-------------
------------|----------|-6--6--6--6--6--6--6--6--6--6--6--6--6--6-------------
------------|----------|------------------------------------------------------
              Repeat     "I call you lover"  
[ Tab from: http://www.guitartabs.cc/tabs/g/great_white/lady_red_light_tab_ver_2.html ]
------------------------------------------------------------------------------
------------------------------------------------------------------------------
-8----------------------------------------------------------------------------
-8--8--12------------------------8--------------------12----------------------
-6--8--12------------------------8--------------------12----------------------
----6--10------------------------6--------------------10----------------------
               

------------------------------------------------------------------------------
------------------------11--11--10--------------------------------------------
--7--------8-------10---10--10--10---8--------------8/10----------------------
--7--------8-------10----------------8--------------8/10----------------------
--5--------6-------8-----------------6--------------6/8-----------------------
------------------------------------------------------------------------------
 "Lady red light,  

------------------------------------------------------------------------------
------------------------------------------------------------------------------
--7--------8-------10---11--11--10---8--------------8\7-----------------------
--7--------8-------10---10--10--10---8--------------8\7-----------------------
--5--------6-------8-----------------6--------------6\5-----------------------
------------------------------------------------------------------------------
 "Lady red light,        

------------------------------------------------------------------------------
------------------------------------------------------------------------------
------------------------------------------------------------------------------
------------------------------------------------------------------------------
------------------------------------------------------------------------------
------------------------------------------------------------------------------
 Return to Rhythm Fig.1. 2nd verse is nearly identical to the first.                

------------------------------------------------------------------------------
------------------------------------------------------------------------------
-12--8--10--12----------------------------------------------------------------
-12--8--10--12----------------------------------------------------------------
-10--6--8---10----------------------------------------------------------------
------------------------------------------------------------------------------
 Rhythm part under the solo (Chords are spaced out, with each chord approx 1  

------------------------------------------------------------------------------
------------------------------------------------------------------------------
------------------------------------------------------------------------------
------------------------------------------------------------------------------
------------------------------------------------------------------------------
------------------------------------------------------------------------------
 measure. )                                                                   
Comments