Gray David - Sail Away Chords & Tabs

 

Sail Away Chords & Tabs

Gray David Chords & Tabs

Version: 1 Type: Chords 0 ratings
1 star 2 stars 3 stars 4 stars 5 stars
comments

Sail Away Chords

   
----------------------------------PLEASE NOTE--------------------------------#
#This file is the author's own work and represents their interpretation of the#
#Song. You may only use this file for private study, scholarship, or research.#
#-----------------------------------------------------------------------------#
#-- File created with Instab - http://www.pconline.com/~smcarey/instab.html --#
#-----------------------------------------------------------------------------#

Author/Artist: David Gray
Title: Sail away
Album: White ladder
Transcribed by: spoon
Email: spoonyvibes@hotmail.com

CAPPO 1ST FRET:
[Chord formations]
[ Tab from: http://www.guitartabs.cc/tabs/g/gray_david/sail_away_crd.html ]
[Bmadd11][F#m7+11]   [G]     [E]     [D]     [G6]    [A7]   [F#m] 
|---0---|----0----|---3---|---0---|---2---|---0---|---0---|---2---|
|---0---|----0----|---0---|---0---|---3---|---3---|---2---|---3---|
|---7---|----2----|---0---|---0---|---2---|---0---|---0---|---2---|
|---9---|----4----|---0---|---2---|---0---|---0---|---2---|---4---|
|---X---|----X----|---2---|---2---|---X---|---2---|---0---|---2---|
|---7---|----2----|---3---|---0---|---X---|---3---|---0---|---2---|
                                                                             
  [F#]     [F#m11]   [Aadd9]
|---2---|-----0-----|---0---|
|---3---|-----0-----|---0---|
|---4---|-----2-----|---6---|
|---4---|-----X-----|---7---|
|---2---|-----4-----|---7---|
|---2---|-----2-----|---5---|
                                                                              
Comments