Gray David - Falling Down The Mountainside Chords & Tabs

 

Falling Down The Mountainside Chords & Tabs

Gray David Chords & Tabs

Version: 1 Type: Chords 0 ratings
1 star 2 stars 3 stars 4 stars 5 stars
comments

Falling Down The Mountainside Chords

   
#----------------------------------PLEASE NOTE--------------------------------#
#This file is the author's own work and represents their interpretation of the#
#song. You may only use this file for private study, scholarship, or research.#
#-----------------------------------------------------------------------------#
#-- File created with Instab - http://www.pconline.com/~smcarey/instab.html --#
#-----------------------------------------------------------------------------#
[ Tab from: http://www.guitartabs.cc/tabs/g/gray_david/falling_down_the_mountainside_crd.html ]
Author/Artist: David Gray
Title: falling down the mountainside
Album: Lost songs
Transcribed by: Spoon
Email: Spoonyvibes@hotmail.com
CHORDS:
   [A#]    [Amb6]  [G6]   [Fmaj7]  [Dm]   [F\Dm]    [G]    [Gm]    [Am]
-|---0---|---0---|---0---|---0---|---1---|---1---|---3--|---3---|---0---|
-|---6---|---6---|---0---|---1---|---3---|---3---|---0--|---3---|---1---|
-|---7---|---5---|---4---|---2---|---2---|---2---|---0--|---3---|---2---|
-|---0---|---7---|---5---|---3---|---0---|---0---|---0--|---5---|---2---|
-|---5---|---7---|---5---|---3---|-------|---x---|---2--|---5---|---0---|
-|---6---|---5---|---3---|---1---|-------|---1---|---3--|---3---|-------|

[PICK 1]                                [F6sus4]   [F]
-|----1-1-----1-----0--0-0----------3---|---x---|---1---|
-|----3-3---3-------3--3-3----------3---|---3---|---1---|
-|--2---------------0---------------3---|---3---|---2---|
-|-0------3-----2p-h2------2h3-p2-0-5---|---3---|---3---|
-|------------------0---------------5---|---1---|---3---|
-|----------------------------------3---|---1---|---1---|

   [C]
-|--X----|
-|--8----|
-|--9----|
-|--10---|
-|--10---|
-|--8----|
(Add this [C] instead of the [G6] in verse 2 and 3)
Comments