Gravity Kills - One Thing Chords & Tabs

 

One Thing Chords & Tabs

Gravity Kills Chords & Tabs

Version: 1 Type: Bass Tab 0 ratings
1 star 2 stars 3 stars 4 stars 5 stars
comments

One Thing Bass Tab

				"One Thing" - Gravity Kills
Bass Tab:
__= Let Ring		
~ = Gap or Slide

In Order:
--------------------------------------------------------------------
--------------------------------------------------------------------
555555555-8888888888-33333333333-88888-66666------------------------
--------------------------------------------------------------------x1

--------------------------------------------------------------------
--------------------------------------------------------------------
5-55-8-5-5-5-5-8-10-5-55-8-5-5-5-5-8-10-5-55-8-55-55-8-10-8888-6666-
--------------------------------------------------------------------x2

--------------------------------------------------------------------
--------------------------------------------------------------------
5555555555-8888888888-5555555555-8888888888-------------------------
--------------------------------------------------------------------x1

--------------------------------------------------------------------
--------------------------------------------------------------------
5555555555-8888888888-3333333333-8888-6666--------------------------
--------------------------------------------------------------------x2

--------------------------------------------------------------------
--------------------------------------------------------------------
555-6-5555-5-3~5-555-6-5555-5-3~5-555-6-5555-5-3~5-8888-6666--------
--------------------------------------------------------------------x1

--------------------------------------------------------------------
--------------------------------------------------------------------
5-55-8-5-5-5-5-8-10-5-55-8-5-5-5-5-8-10-8888-6666-------------------
--------------------------------------------------------------------x2

--------------------------------------------------------------------
--------------------------------------------------------------------
5555555555-8888888888-5555555555-8888888888-------------------------
--------------------------------------------------------------------x1

--------------------------------------------------------------------
--------------------------------------------------------------------
5555555555-8888888888-3333333333-8888-6666--------------------------
--------------------------------------------------------------------x1


[ Tab from: http://www.guitartabs.cc/tabs/g/gravity_kills/one_thing_btab.html ]
--------------------------------------------------------------------
--------------------------------------------------------------------
5-55-8-5-5-55-8-5-5-55-8-5-8888-6666--------------------------------
--------------------------------------------------------------------x1

--------------------------------------------------------------------
--------------------------------------------------------------------
10-10-10-10-10-10-10-10-13-13-13-13-13-13-13-13---------------------
--------------------------------------------------------------------x2

--------------------------------------------------------------------
--------------------------------------------------------------------
5555555555-8888888888-3333333333-8888-6666--------------------------
--------------------------------------------------------------------x4

--------------------------------------------------------------------
--------------------------------------------------------------------
5-55-6-55-55-3~5-5-55-6-55-55-3~5-8888-6666-5________---------------
--------------------------------------------------------------------x1

Lyrics:

Lead:			Secondary (back-up):	Other (background):

Are you wishing	Wishing...
Upon a star
That's falling		Falling...
Hearts are ringing 
Now Iím the one 
That you left standing here

You'll never see
The little things
You'll never change me

Give me just one thing
Something to cling to
Something for me to make it

Give me just one thing
Something to claim to
Something to pray to 

Give me just one thing




Lay before me
And everything you've given
Same old story
There's not one thing
That opens up my eyes

You'll never see
The little things
You'll never change me

Give me just one thing
Something to cling to
Something for me to make it

Give me just one thing
Something to claim to
Something to pray to 

Give me just one thing

One thing.
One way.
One touch.
One hope.
One face.
One feel.
One taste.
One wish.
One steal.
One care.
One feel.
One day.
One thing.
One way.
One touch.			             What the fuck,
One thing.		One thing.           I just want one thing!

Give me just one thing
Something to cling to
Something for me to make it

Give me just one thing
Something to claim to
Something to pray to 

Give me just one thing


One thing.
			One touch.
			One love.
			One face.
One thing.		One wish.
			One feel.
			One care.
One thing.		One fear.
			One touch.		What the fuck,
			One hope.               I just want one thing!
			One way.
One thing.
			One wish.
			One steal.
One thing.		One thing.

              send any corrections to: lantern5222@earthlink.net
Comments