Graves - Black Bird Chords & Tabs

 

Black Bird Chords & Tabs

Graves Chords & Tabs

Version: 1 Type: Tab 0 ratings
1 star 2 stars 3 stars 4 stars 5 stars
comments

Black Bird Tab

   
Intro: repeat this 3x,

   A     E      D    E
|--5-----0------5----0-----------------|
|--5-----0------7----0-----------------|
|--6-----1------7----1-----------------|
|--7-----2------7----2-----------------|
|--7-----2------5----2-----------------|
|--5-----0-----------0-----------------|

after you play that 3 times, play this

|---5------5----5---------------------|
|---5------7----5---------------------|
|---6------7----6---------------------|
|---7------7----7---------------------|
|---7------5----7---------------------|
|---5-----------5---------------------|
[ Tab from: http://www.guitartabs.cc/tabs/g/graves/black_bird_tab.html ]
verse 1: its the same as the intro, but you play
it only twice, then this is little riff it thrown in
|---5---4---2----------------------------|
|---7---6---4----------------------------|
|---7---6---4----------------------------|
|---7---6---4----------------------------|
|---5---4---2----------------------------|
|----------------------------------------|
then its back to the  A-E-D-E riff

Second Verse:
|---5-----9-----8------5-------------------|
|---7-----11----8------5-------------------|
|---7-----11----9------6-------------------|
|---7-----11----10-----7-------------------|
|---5-----9-----10-----7-------------------|
|---------------8------5-------------------|


|---5-----9-----7---5---5------------------|
|---7-----11----9---7---5------------------|
|---7-----11----9---7---6------------------|
|---7-----11----9---7---7------------------|
|---5-----9-----7---5---7------------------|
|-----------------------5------------------|

Then back to main riff. its the same chords the rest of the song, 
FIGURE IT OUT YOURSELF.
graves is awsome



Comments