Gravenhurst - Bluebeard Chords & Tabs

 

Bluebeard Chords & Tabs

Gravenhurst Chords & Tabs

Version: 1 Type: Chords 0 ratings
1 star 2 stars 3 stars 4 stars 5 stars
comments

Bluebeard Chords

   
bluebeard by gravenhurst
tab by alexander rex

standard tuning
capo on 4th fret

Am    x02210 F  133211
G     320033 C  x32010
Asus2 x02200 G* 320003


intro
    Am     F    Am     F    Am     F    Am   C   /B
g#|---0------1----0------1----0------1----0----0---0-| repeat
d#|---1------1----1------1----1------1----1----1---1-|
b |---2------2----2------2----2------2----2----0---0-|
f#|-2-2--2/3-3--2-2--2/3-3--2-2--2/3-3--2-2----x---x-|
c#|------------------------------------------3---2---|
g#|--------------------------------------------------|


Am  F         Am         F        Am     F
You stood for all that's true and honest 
Am                C  /B
it makes you feel hollow 
Am  F       Am         F       Am     F
you can't decide which path to follow 
Am           C   /B
you dig your own hole 


F                  G
are you coming out tonight? 
                  Am
we're going for a drive 
    C        G       F
the answer's in your eyes 
                      G
the voice inside your head 
                      Am
says stay at home and stare 
       C           G        F
at the demons that thrive inside 
                 G
a tale left half told 
             Am
wouldn't you love to know 
        C        G       F
how the person inside survives 
             G                  Am   Asus2 G*
is it any wonder you get sucked under 

[ Tab from: http://www.guitartabs.cc/tabs/g/gravenhurst/bluebeard_crd.html ]
    Am     F    Am     F    Am     F    Am   C   /B
g#|---0------1----0------1----0------1----0----0---0-|
d#|---1------1----1------1----1------1----1----1---1-|
b |---2------2----2------2----2------2----2----0---0-|
f#|-2-2--2/3-3--2-2--2/3-3--2-2--2/3-3--2-2----x---x-|
c#|------------------------------------------3---2---|
g#|--------------------------------------------------|


Am      F       Am    F         Am      F
and you can't rely on those you turn to 
Am        C       /B
they turn against you
Am  F          Am      F            Am     F 
you don't know why you whored those values 
Am              C    /B
which burn your soul blue 

F                  G
are you coming out tonight? 
                  Am
we're going for a drive 
    C        G       F
the answer's in your eyes 
                      G
the voice inside your head 
                      Am
says stay at home and stare 
       C           G        F
at the demons that thrive inside 
                 G
a tale left half told 
             Am
wouldn't you love to know 
        C        G       F
how the person inside survives 
             G                  Am   Asus2 F
is it any wonder you get sucked under 
    G          Am   Asus2 F
you get sucked underG
    G          Am   Asus2 F
you get sucked under
    G          Am   Asus2 F 
you get sucked under

F G Am C G
F G Am C G
F G Am C G
F G Am C G
F G Am C G 
Am Asus2 F G
Am Asus2 F G
Am Asus2 F G
Am Asus2 F G
Am
Comments