Graveltrap - Srj Chords & Tabs

 

Srj Chords & Tabs

Graveltrap Chords & Tabs

Version: 1 Type: Tab 0 ratings
1 star 2 stars 3 stars 4 stars 5 stars
comments

Srj Tab

   
Gravel Trap - S.R.J

Tabbed by Tibro

Notation [--P-M--] = palm mute
h = hammer on
p = pull off
b = bend string up
r = release bend
/ = slide up
\ = slide down
v = vibrato (sometimes written as ~)
t = tap (with strumming hand)
x = muted, struck string
x\\ = pick scrapes
. = staccato note (over note)
(1) = unintentional note
Harm = harmonic


S.R.J
Verse

E---------------------0-------------------------------------------
B---------------------0-------------------------------------------
G---------------------1-------------------------7---7-7---7-7-7-7- x2
D-7---7---7-7-7-2---2-2---2-2-2-2-4---4---4-4-4-7---7-7---7-7-7-7-
A-7---7---7-7-7-2---2-2---2-2-2-2-4---4---4-4-4-5---5-5---5-5-5-5-
E-5---5---5-5-5-0---0-----0-0-0-0-2---2---2-2-2-------------------


Pre-Chorus

[--------P-M--------]
E-----------------------------------------------------------------
B-----------------------------------------------------------------
G-7-------7---7---7---7---7---7---9-------9---x-x-----x-----------
D-7-------7---7---7---7---7---7---9-------9---x-x-----x-2---2-4---
A-5-------5---5---5---5---5---5---7-------7---x-x-9\7-x-2---2-4---
E-5-------5---5---5---5---5---5---7-------7---x-x-7\5-x-0---0-2---


[--------P-M--------]
E-------------------------------------------------------------------------
B-------------------------------------------------------------------------
G-7-------7---7---7---7---7---7---9-------9---x-x-12-12-12-12-12-12-12-12-
D-7-------7---7---7---7---7---7---9-------9---x-x-------------------------
A-5-------5---5---5---5---5---5---7-------7---x-x-10-10-10-10-10-10-10-10-
E-5-------5---5---5---5---5---5---7-------7---x-x-------------------------

Chorus
(other guitar pick scrapes on bottm E & A strings)
E-------------------------------------------------x///////////////
B-------------------------------------------------x///////////////
G-----------------------------------------------------------------
D-7---7---7-7-7-7---7-7---7-7-7-7-7---7---7-7-7-7---7-7---7-7-7-7-
A-----------------------------------------------------------------
E-5---5---5-5-5-5---5-5---5-5-5-5-5---5---5-5-5-5---5-5---5-5-5-5-


E---------------------0-------------------------------------------
B---------------------0-------------------------------------------
G---------------------1-----------7---7---7-7-7-9---9-9---9-9-9-9- x2
D-4---4---4-4-4-2---2-2---2-2-2-2-7---7---7-7-7-9---9-9---9-9-9-9-
A-4---4---4-4-4-2---2-2---2-2-2-2-5---5---5-5-5-7---7-7---7-7-7-7-
E-2---2---2-2-2-0---0-0---0-0-0-0------------------------------


Riff

E-----------------------------------------------------------------
D-----------------------------------------------------------------
G-------------------------------------.---------------------------
B-----.---------------.---2-----2(0)6-7---7-----7(0)6-7(0)--------
A---6-7---7-----7---6-7---2-----2-0-4-5---5-----5-0-4-5-0-8---6---
E-0-4-5---5-----5-0-4-5---0-----0----------------------(0)6---4---


Middle 8

E-------------------------0---------------------------------------
D-------------------------0---------.-----------.-----------------
G---.-----------.---------0-------7-7---------7-7---x-x-x--------- x2
B-7-7---------7-7---------0-------7-7---------7-7---x-x-x---------
A-7-7---------7-7---------0-------5-5---------5-5---x-x-x---------
E-5-5---------5-5-----------------------------------------0-------


[-Harm-] [---Harm---]
E-----------------------------------------------------------------
D-----------------------------------.-----------.---7-.---7-------
G---.-----------.---7-.---7-------7-7---------7-7-----7-------7--- x2
B-7-7---------7-7-----7-----------7-7---------7-7-----------------
A-7-7---------7-7-----------------5-5---------5-5-----------------
E-5-5---------5-5-------------------------------------------------


[-----------------------------P-M-------------------------------]
E-----------------------------------------------------------------
D-----------------------------------------------------------------
G----------------------------------------------------------------- x2
B-----------------------------------------------------------------
A-----------------------------------------------------------------
E-3-5-5-5-5-5-3-5-5-5-5-5-3-5-5-5-3-5-5-5-5-5-3-5-5-5-5-5-3-5-5-5-


[-P-M-] [-P-M-] [PM] [-P-M-] [-P-M-] [PM]
E-----------------------------------------------------------------
D-----------------------------------------------------------------
G-----------------------------------------------------------------
B-----------------------------------------------------------------
A-----------------------------------------------------------------
E-3-5-5-5-5-5-3-5-5-5-5-5-3-5-5-5-3-5-5-5-5-5-3-5-5-5-5-5-3-5-5-5-

[ Tab from: http://www.guitartabs.cc/tabs/g/graveltrap/srj_tab.html ]
[-P-M-] [-P-M-] [PM]
E-----------------------------------------------------------------
D-----------------------------------------------------------------
G-----------------------------------------------------------------
B-----------------------------------------------------------------
A-----------------------------------------------------------------
E-3-5-5-5-5-5-3-5-5-5-5-5-3-5-5-5-3-5-random picking up E string


BASS SOLO TAB

G-----------------------------------------------------------------
B-----------------------------------------------------------------
A-----3-----3-5--/6---6---3-5-3-------3-------3-------------------
E-5-------5---------------------1---------1-1-----4-4-4-4-4-4-4-4-


Ska section (stacatto)

. . . . . . . . .
E-x-x-5---x-x-5---x-x-5---x-x-5---x-x-x ---x-x-x ---x-x-x ---x-x-x ---x-x-x-x-
D-x-x-5---x-x-5---x-x-5---x-x-5---x-x-10---x-x-10---x-x-10---x-x-10---x-8-8-8-
G-x-x-5---x-x-5---x-x-5---x-x-5---x-x-10---x-x-10---x-x-10---x-x-10---x-8-8-8- x2
B-x-x-7---x-x-7---x-x-7---x-x-7---x-x-10---x-x-10---x-x-10---x-x-10---x-8-8-8-
A----(7)-----(7)-----(7)-----(7)----- (8)------(8)------(8)------(8)---(6-6-6)
E----(5)-----(5)-----(5)-----(5)----------------------------------------------


. . . . . . . . . . . . . . . .
E-x-5-x-5-x-5-x-5-x-5-x-5-x-5-x-5-x-x -x-x -x-x -x-x -x-x -x-x -x-x-x-x-
D-x-5-x-5-x-5-x-5-x-5-x-5-x-5-x-5-x-10-x-10-x-10-x-10-x-10-x-10-x-8-8-8-
G-x-5-x-5-x-5-x-5-x-5-x-5-x-5-x-5-x-10-x-10-x-10-x-10-x-10-x-10-x-8-8-8-
B-x-7-x-7-x-7-x-7-x-7-x-7-x-7-x-7-x-10-x-10-x-10-x-10-x-10-x-10-x-8-8-8-
A-----------------------------------------------------------------------
E-----------------------------------------------------------------------


Lead Octaves

E-------------------------------------------------------------------------------------------------
D-------------------------------------------------------------------------------------------------
G-14-14-14-14-14-14-14-14-14-14-14-14-14-14-14-14-17-17-17-17-17-17-17-17-16-16-16-16-16-16-16-16-
B-------------------------------------------------------------------------------------------------
A-12-12-12-12-12-12-12-12-12-12-12-12-12-12-12-12-15-15-15-15-15-15-15-15-14-14-14-14-14-14-14-14-
E-------------------------------------------------------------------------------------------------


E-----------------------------------
D-----------------------------------
G/10-------10-----------------------
B/10-------10---x-x----------------- x4
A/8 -------8 ---x-x-----------------
E---------------x-x-9\------5\------


Riff breakdown

[------------------------P-M----------------------------]
E-----------------------------------------------------------------
D-----------------------------------------------------------------
G-----------------------------------------------------------------
B-------------------------------------.---------------------------
A-----.---------------.-----------0-4-5---5-----5-0-4-5-0-9---6---
E-0-4-5---5-----5-0-4-5---0-----0-------------------------6---4---


[----------------P-M-----------------] v
E-----------------------------------------------------------------
D-----------------------------------------------------------------
G----------------------------------------(0)----------------------
B-------------------------------------.---x-----------------------
A-----.---------------.-----------0-4-5---5~~~~~~~~~~~~~~~x\\\\\\\
E-0-4-5---5-----5-0-4-5---0-----0-------------------------x\\\\\\\


Riff end

[---P-M---]
E--------------------------------------------------------------
D--------------------------------------------------------------
G-------------------------------------.--------(0)-------------
B-----.---------------.---2-----2(0)6-7---7----(0)-5--5--5--5--
A---6-7---7-----7---6-7---2-----2-0-4-5---5----(0)-5--5--5--5--
E-0-4-5---5-----5-0-4-5---0-----0--------------(0)-3--3--3--3--


Na Na's Outro

E-----------------------------------------------------------------
D-----------------------------------------------------------------
G-----------------------------------------------------------------
B-7-------7---7-7-7-------7---7-7-4-------4---4-4-2-------2---2-2-
A-7-------7---7-7-7-------7---7-7-4-------4---4-4-2-------2---2-2-
E-5-------5---5-5-4-------4---4-4-2-------2---2-2-0-------0---0-0-


E-[-------[-------[-------[-------[-------[-------[-------[-------
D-----------------------------------------------------------------
G-4---4---4-4-4-4---4-4---4-4-4-4-7---7---7-7-7-9---9-9---9-9-9-9-
B-4---4---4-4-4-4---4-4---4-4-4-4-7---7---7-7-7-9---9-9---9-9-9-9-
A-2---2---2-2-2-2---2-2---2-2-2-2-5---5---5-5-5-7---7-7---7-7-7-7-
E-----------------------------------------------------------------


E---
D---
G---
B-7-
A-7-
E-5-
Comments